  0
SECTION
  2
HEADER
  9
$ACADVER
  1
AC1021
  9
$ACADMAINTVER
 70
    25
  9
$DWGCODEPAGE
  3
ANSI_1252
  9
$LASTSAVEDBY
  1
jlewis
  9
$INSBASE
 10
0.0
 20
0.0
 30
0.0
  9
$EXTMIN
 10
1.297173733574823
 20
4.51487382670642
 30
0.0
  9
$EXTMAX
 10
18.70985571756705
 20
16.08199406857008
 30
0.0
  9
$LIMMIN
 10
0.0
 20
0.0
  9
$LIMMAX
 10
33.11023622047244
 20
23.38582677165354
  9
$ORTHOMODE
 70
     0
  9
$REGENMODE
 70
     1
  9
$FILLMODE
 70
     1
  9
$QTEXTMODE
 70
     0
  9
$MIRRTEXT
 70
     0
  9
$LTSCALE
 40
1.0
  9
$ATTMODE
 70
     1
  9
$TEXTSIZE
 40
0.0794061986562156
  9
$TRACEWID
 40
0.05
  9
$TEXTSTYLE
  7
Standard
  9
$CLAYER
  8
0
  9
$CELTYPE
  6
ByLayer
  9
$CECOLOR
 62
   256
  9
$CELTSCALE
 40
1.0
  9
$DISPSILH
 70
     0
  9
$DIMSCALE
 40
0.5
  9
$DIMASZ
 40
0.18
  9
$DIMEXO
 40
0.18
  9
$DIMDLI
 40
0.38
  9
$DIMRND
 40
0.0
  9
$DIMDLE
 40
0.0
  9
$DIMEXE
 40
0.18
  9
$DIMTP
 40
0.0
  9
$DIMTM
 40
0.0
  9
$DIMTXT
 40
0.18
  9
$DIMCEN
 40
-0.18
  9
$DIMTSZ
 40
0.0
  9
$DIMTOL
 70
     0
  9
$DIMLIM
 70
     0
  9
$DIMTIH
 70
     1
  9
$DIMTOH
 70
     1
  9
$DIMSE1
 70
     0
  9
$DIMSE2
 70
     0
  9
$DIMTAD
 70
     0
  9
$DIMZIN
 70
     0
  9
$DIMBLK
  1

  9
$DIMASO
 70
     1
  9
$DIMSHO
 70
     1
  9
$DIMPOST
  1
"
  9
$DIMAPOST
  1
mm
  9
$DIMALT
 70
     0
  9
$DIMALTD
 70
     0
  9
$DIMALTF
 40
25.4
  9
$DIMLFAC
 40
1.0
  9
$DIMTOFL
 70
     0
  9
$DIMTVP
 40
0.0
  9
$DIMTIX
 70
     0
  9
$DIMSOXD
 70
     0
  9
$DIMSAH
 70
     0
  9
$DIMBLK1
  1

  9
$DIMBLK2
  1

  9
$DIMSTYLE
  2
1X
  9
$DIMCLRD
 70
   256
  9
$DIMCLRE
 70
   256
  9
$DIMCLRT
 70
     0
  9
$DIMTFAC
 40
1.0
  9
$DIMGAP
 40
0.18
  9
$DIMJUST
 70
     0
  9
$DIMSD1
 70
     0
  9
$DIMSD2
 70
     0
  9
$DIMTOLJ
 70
     1
  9
$DIMTZIN
 70
     0
  9
$DIMALTZ
 70
     0
  9
$DIMALTTZ
 70
     0
  9
$DIMUPT
 70
     0
  9
$DIMDEC
 70
     3
  9
$DIMTDEC
 70
     3
  9
$DIMALTU
 70
     2
  9
$DIMALTTD
 70
     0
  9
$DIMTXSTY
  7
Standard
  9
$DIMAUNIT
 70
     0
  9
$DIMADEC
 70
     0
  9
$DIMALTRND
 40
0.0
  9
$DIMAZIN
 70
     0
  9
$DIMDSEP
 70
    46
  9
$DIMATFIT
 70
     0
  9
$DIMFRAC
 70
     0
  9
$DIMLDRBLK
  1

  9
$DIMLUNIT
 70
     5
  9
$DIMLWD
 70
    -2
  9
$DIMLWE
 70
    -2
  9
$DIMTMOVE
 70
     0
  9
$DIMFXL
 40
1.0
  9
$DIMFXLON
 70
     0
  9
$DIMJOGANG
 40
0.7853981633974483
  9
$DIMTFILL
 70
     0
  9
$DIMTFILLCLR
 70
     0
  9
$DIMARCSYM
 70
     0
  9
$DIMLTYPE
  6

  9
$DIMLTEX1
  6

  9
$DIMLTEX2
  6

  9
$LUNITS
 70
     2
  9
$LUPREC
 70
     2
  9
$SKETCHINC
 40
0.1
  9
$FILLETRAD
 40
0.0
  9
$AUNITS
 70
     0
  9
$AUPREC
 70
     2
  9
$MENU
  1
.
  9
$ELEVATION
 40
0.0
  9
$PELEVATION
 40
0.0
  9
$THICKNESS
 40
0.0
  9
$LIMCHECK
 70
     0
  9
$CHAMFERA
 40
0.5
  9
$CHAMFERB
 40
0.5
  9
$CHAMFERC
 40
1.0
  9
$CHAMFERD
 40
0.0
  9
$SKPOLY
 70
     0
  9
$TDCREATE
 40
2456768.432236458
  9
$TDUCREATE
 40
2456768.598903125
  9
$TDUPDATE
 40
2457949.572070498
  9
$TDUUPDATE
 40
2457949.738737165
  9
$TDINDWG
 40
0.0142036111
  9
$TDUSRTIMER
 40
2457949.738312153
  9
$USRTIMER
 70
     1
  9
$ANGBASE
 50
0.0
  9
$ANGDIR
 70
     0
  9
$PDMODE
 70
     0
  9
$PDSIZE
 40
-1.0
  9
$PLINEWID
 40
0.0
  9
$SPLFRAME
 70
     0
  9
$SPLINETYPE
 70
     6
  9
$SPLINESEGS
 70
     8
  9
$HANDSEED
  5
893
  9
$SURFTAB1
 70
     6
  9
$SURFTAB2
 70
     6
  9
$SURFTYPE
 70
     6
  9
$SURFU
 70
     6
  9
$SURFV
 70
     6
  9
$UCSBASE
  2

  9
$UCSNAME
  2

  9
$UCSORG
 10
0.0
 20
0.0
 30
0.0
  9
$UCSXDIR
 10
1.0
 20
0.0
 30
0.0
  9
$UCSYDIR
 10
0.0
 20
1.0
 30
0.0
  9
$UCSORTHOREF
  2

  9
$UCSORTHOVIEW
 70
     0
  9
$UCSORGTOP
 10
0.0
 20
0.0
 30
0.0
  9
$UCSORGBOTTOM
 10
0.0
 20
0.0
 30
0.0
  9
$UCSORGLEFT
 10
0.0
 20
0.0
 30
0.0
  9
$UCSORGRIGHT
 10
0.0
 20
0.0
 30
0.0
  9
$UCSORGFRONT
 10
0.0
 20
0.0
 30
0.0
  9
$UCSORGBACK
 10
0.0
 20
0.0
 30
0.0
  9
$PUCSBASE
  2

  9
$PUCSNAME
  2

  9
$PUCSORG
 10
0.0
 20
0.0
 30
0.0
  9
$PUCSXDIR
 10
1.0
 20
0.0
 30
0.0
  9
$PUCSYDIR
 10
0.0
 20
1.0
 30
0.0
  9
$PUCSORTHOREF
  2

  9
$PUCSORTHOVIEW
 70
     0
  9
$PUCSORGTOP
 10
0.0
 20
0.0
 30
0.0
  9
$PUCSORGBOTTOM
 10
0.0
 20
0.0
 30
0.0
  9
$PUCSORGLEFT
 10
0.0
 20
0.0
 30
0.0
  9
$PUCSORGRIGHT
 10
0.0
 20
0.0
 30
0.0
  9
$PUCSORGFRONT
 10
0.0
 20
0.0
 30
0.0
  9
$PUCSORGBACK
 10
0.0
 20
0.0
 30
0.0
  9
$USERI1
 70
     0
  9
$USERI2
 70
     0
  9
$USERI3
 70
     0
  9
$USERI4
 70
     0
  9
$USERI5
 70
     0
  9
$USERR1
 40
0.0
  9
$USERR2
 40
0.0
  9
$USERR3
 40
0.0
  9
$USERR4
 40
0.0
  9
$USERR5
 40
0.0
  9
$WORLDVIEW
 70
     1
  9
$SHADEDGE
 70
     3
  9
$SHADEDIF
 70
    70
  9
$TILEMODE
 70
     1
  9
$MAXACTVP
 70
    64
  9
$PINSBASE
 10
0.0
 20
0.0
 30
0.0
  9
$PLIMCHECK
 70
     0
  9
$PEXTMIN
 10
1.000000000000000E+20
 20
1.000000000000000E+20
 30
1.000000000000000E+20
  9
$PEXTMAX
 10
-1.000000000000000E+20
 20
-1.000000000000000E+20
 30
-1.000000000000000E+20
  9
$PLIMMIN
 10
0.0
 20
0.0
  9
$PLIMMAX
 10
0.0
 20
0.0
  9
$UNITMODE
 70
     0
  9
$VISRETAIN
 70
     1
  9
$PLINEGEN
 70
     0
  9
$PSLTSCALE
 70
     1
  9
$TREEDEPTH
 70
  3020
  9
$CMLSTYLE
  2
Standard
  9
$CMLJUST
 70
     0
  9
$CMLSCALE
 40
1.0
  9
$PROXYGRAPHICS
 70
     1
  9
$MEASUREMENT
 70
     0
  9
$CELWEIGHT
370
    -1
  9
$ENDCAPS
280
     0
  9
$JOINSTYLE
280
     0
  9
$LWDISPLAY
290
     0
  9
$INSUNITS
 70
     1
  9
$HYPERLINKBASE
  1

  9
$STYLESHEET
  1

  9
$XEDIT
290
     1
  9
$CEPSNTYPE
380
     0
  9
$PSTYLEMODE
290
     1
  9
$FINGERPRINTGUID
  2
{0FA34DE6-6ED8-42E4-BA19-96991BB73872}
  9
$VERSIONGUID
  2
{01F0C702-93A0-4621-9915-755DA553E4A4}
  9
$EXTNAMES
290
     1
  9
$PSVPSCALE
 40
0.0
  9
$OLESTARTUP
290
     0
  9
$SORTENTS
280
   127
  9
$INDEXCTL
280
     0
  9
$HIDETEXT
280
     1
  9
$XCLIPFRAME
290
     0
  9
$HALOGAP
280
     0
  9
$OBSCOLOR
 70
   257
  9
$OBSLTYPE
280
     0
  9
$INTERSECTIONDISPLAY
280
     0
  9
$INTERSECTIONCOLOR
 70
   257
  9
$DIMASSOC
280
     1
  9
$PROJECTNAME
  1

  9
$CAMERADISPLAY
290
     0
  9
$LENSLENGTH
 40
50.0
  9
$CAMERAHEIGHT
 40
0.0
  9
$STEPSPERSEC
 40
2.0
  9
$STEPSIZE
 40
6.0
  9
$3DDWFPREC
 40
2.0
  9
$PSOLWIDTH
 40
0.25
  9
$PSOLHEIGHT
 40
4.0
  9
$LOFTANG1
 40
1.570796326794897
  9
$LOFTANG2
 40
1.570796326794897
  9
$LOFTMAG1
 40
0.0
  9
$LOFTMAG2
 40
0.0
  9
$LOFTPARAM
 70
     7
  9
$LOFTNORMALS
280
     1
  9
$LATITUDE
 40
37.795
  9
$LONGITUDE
 40
-122.394
  9
$NORTHDIRECTION
 40
0.0
  9
$TIMEZONE
 70
 -8000
  9
$LIGHTGLYPHDISPLAY
280
     1
  9
$TILEMODELIGHTSYNCH
280
     1
  9
$CMATERIAL
347
17
  9
$SOLIDHIST
280
     0
  9
$SHOWHIST
280
     1
  9
$DWFFRAME
280
     2
  9
$DGNFRAME
280
     0
  9
$REALWORLDSCALE
290
     1
  9
$INTERFERECOLOR
 62
     1
  9
$INTERFEREOBJVS
345
38
  9
$INTERFEREVPVS
346
39
  9
$CSHADOW
280
     0
  9
$SHADOWPLANELOCATION
 40
0.0
  0
ENDSEC
  0
SECTION
  2
CLASSES
  0
CLASS
  1
ACDBDICTIONARYWDFLT
  2
AcDbDictionaryWithDefault
  3
ObjectDBX Classes
 90
        0
 91
        4
280
     0
281
     0
  0
CLASS
  1
MATERIAL
  2
AcDbMaterial
  3
ObjectDBX Classes
 90
     1153
 91
        4
280
     0
281
     0
  0
CLASS
  1
SORTENTSTABLE
  2
AcDbSortentsTable
  3
ObjectDBX Classes
 90
        0
 91
        4
280
     0
281
     0
  0
CLASS
  1
VISUALSTYLE
  2
AcDbVisualStyle
  3
ObjectDBX Classes
 90
     4095
 91
        4
280
     0
281
     0
  0
CLASS
  1
SUN
  2
AcDbSun
  3
SCENEOE
 90
     1153
 91
        4
280
     0
281
     0
  0
CLASS
  1
SCALE
  2
AcDbScale
  3
ObjectDBX Classes
 90
     1153
 91
        4
280
     0
281
     0
  0
CLASS
  1
RASTERVARIABLES
  2
AcDbRasterVariables
  3
ISM
 90
        0
 91
        4
280
     0
281
     0
  0
CLASS
  1
DICTIONARYVAR
  2
AcDbDictionaryVar
  3
ObjectDBX Classes
 90
        0
 91
        4
280
     0
281
     0
  0
CLASS
  1
TABLESTYLE
  2
AcDbTableStyle
  3
ObjectDBX Classes
 90
     4095
 91
        4
280
     0
281
     0
  0
CLASS
  1
MLEADERSTYLE
  2
AcDbMLeaderStyle
  3
ACDB_MLEADERSTYLE_CLASS
 90
     4095
 91
        4
280
     0
281
     0
  0
CLASS
  1
CELLSTYLEMAP
  2
AcDbCellStyleMap
  3
ObjectDBX Classes
 90
     1152
 91
        4
280
     0
281
     0
  0
ENDSEC
  0
SECTION
  2
TABLES
  0
TABLE
  2
VPORT
  5
33
330
0
100
AcDbSymbolTable
 70
     1
  0
VPORT
  5
3A
330
33
100
AcDbSymbolTableRecord
100
AcDbViewportTableRecord
  2
*Active
 70
     0
 10
0.0
 20
0.0
 11
1.0
 21
1.0
 12
7.518057947527758
 22
10.57835759372893
 13
0.0
 23
0.0
 14
0.5
 24
0.5
 15
0.5
 25
0.5
 16
0.0
 26
0.0
 36
1.0
 17
0.0
 27
0.0
 37
0.0
 40
12.21301417322835
 41
2.198863636363636
 42
50.0
 43
0.0
 44
0.0
 50
0.0
 51
0.0
 71
    16
 72
  2000
 73
     1
 74
     3
 75
     0
 76
     0
 77
     0
 78
     0
281
     0
 65
     1
110
0.0
120
0.0
130
0.0
111
1.0
121
0.0
131
0.0
112
0.0
122
1.0
132
0.0
 79
     0
146
0.0
348
3B
 60
     3
 61
     5
292
     1
282
     1
141
0.0
142
0.0
 63
   250
421
  3355443
361
3C
1001
ACAD_NAV_VCDISPLAY
1070
     3
  0
ENDTAB
  0
TABLE
  2
LTYPE
  5
11
330
0
100
AcDbSymbolTable
 70
     4
  0
LTYPE
  5
12
330
11
100
AcDbSymbolTableRecord
100
AcDbLinetypeTableRecord
  2
ByBlock
 70
     0
  3

 72
    65
 73
     0
 40
0.0
  0
LTYPE
  5
13
330
11
100
AcDbSymbolTableRecord
100
AcDbLinetypeTableRecord
  2
ByLayer
 70
     0
  3

 72
    65
 73
     0
 40
0.0
  0
LTYPE
  5
10
330
11
100
AcDbSymbolTableRecord
100
AcDbLinetypeTableRecord
  2
Continuous
 70
     0
  3
Solid line
 72
    65
 73
     0
 40
0.0
  0
LTYPE
  5
184
330
11
100
AcDbSymbolTableRecord
100
AcDbLinetypeTableRecord
  2
PHANTOM
 70
     0
  3
Phantom ______  __  __  ______  __  __  ______
 72
    65
 73
     6
 40
2.5
 49
1.25
 74
     0
 49
-0.25
 74
     0
 49
0.25
 74
     0
 49
-0.25
 74
     0
 49
0.25
 74
     0
 49
-0.25
 74
     0
  0
ENDTAB
  0
TABLE
  2
LAYER
  5
2
102
{ACAD_XDICTIONARY
360
3
102
}
330
0
100
AcDbSymbolTable
 70
     9
  0
LAYER
  5
26
102
{ACAD_XDICTIONARY
360
27
102
}
330
2
100
AcDbSymbolTableRecord
100
AcDbLayerTableRecord
  2
0
 70
     0
 62
     7
  6
Continuous
370
    -3
390
9
347
C
  0
LAYER
  5
66
102
{ACAD_XDICTIONARY
360
67
102
}
330
2
100
AcDbSymbolTableRecord
100
AcDbLayerTableRecord
  2
FRA
 70
     0
 62
     5
  6
Continuous
370
    30
390
9
347
C
  0
LAYER
  5
6C
102
{ACAD_XDICTIONARY
360
6D
102
}
330
2
100
AcDbSymbolTableRecord
100
AcDbLayerTableRecord
  2
TBTEXT
 70
     0
 62
     4
  6
Continuous
370
     9
390
9
347
C
  0
LAYER
  5
1
102
{ACAD_XDICTIONARY
360
7
102
}
330
2
100
AcDbSymbolTableRecord
100
AcDbLayerTableRecord
  2
TEXT
 70
     0
 62
     3
  6
Continuous
370
     9
390
9
347
C
  0
LAYER
  5
194
102
{ACAD_XDICTIONARY
360
195
102
}
330
2
100
AcDbSymbolTableRecord
100
AcDbLayerTableRecord
  2
HATCH
 70
     0
 62
    60
  6
Continuous
370
     5
390
9
347
C
1001
AcAecLayerStandard
1000

1000

1001
AcCmTransparency
1071
        0
  0
LAYER
  5
183
330
2
100
AcDbSymbolTableRecord
100
AcDbLayerTableRecord
  2
PHANTOM
 70
     0
 62
    30
  6
PHANTOM
370
     5
390
9
347
C
1001
AcAecLayerStandard
1000

1000

1001
AcCmTransparency
1071
        0
  0
LAYER
  5
87
330
2
100
AcDbSymbolTableRecord
100
AcDbLayerTableRecord
  2
camden
 70
     0
 62
   162
  6
Continuous
370
    -3
390
9
347
C
1001
AcAecLayerStandard
1000

1000

1001
AcCmTransparency
1071
        0
  0
LAYER
  5
219
330
2
100
AcDbSymbolTableRecord
100
AcDbLayerTableRecord
  2
TITLEBLOCK
 70
     0
 62
     6
  6
Continuous
370
    -3
390
9
347
C
  0
ENDTAB
  0
TABLE
  2
STYLE
  5
15
330
0
100
AcDbSymbolTable
 70
     2
  0
STYLE
  5
14
330
15
100
AcDbSymbolTableRecord
100
AcDbTextStyleTableRecord
  2
Standard
 70
     0
 40
0.0
 41
1.0
 50
0.0
 71
     0
 42
0.0794061986562156
  3
arial.ttf
  4

1001
ACAD
1000
Arial
1071
       34
  0
STYLE
  5
21D
330
15
100
AcDbSymbolTableRecord
100
AcDbTextStyleTableRecord
  2
SLDTEXTSTYLE0
 70
     0
 40
0.0
 41
0.75
 50
0.0
 71
     0
 42
0.0794061986562156
  3
TXT
  4

  0
ENDTAB
  0
TABLE
  2
VIEW
  5
31
330
0
100
AcDbSymbolTable
 70
     0
  0
ENDTAB
  0
TABLE
  2
UCS
  5
32
330
0
100
AcDbSymbolTable
 70
     0
  0
ENDTAB
  0
TABLE
  2
APPID
  5
6
330
0
100
AcDbSymbolTable
 70
    12
  0
APPID
  5
16
330
6
100
AcDbSymbolTableRecord
100
AcDbRegAppTableRecord
  2
ACAD
 70
     0
  0
APPID
  5
1D
330
6
100
AcDbSymbolTableRecord
100
AcDbRegAppTableRecord
  2
ACAD_DSTYLE_DIMJAG
 70
     0
  0
APPID
  5
1E
330
6
100
AcDbSymbolTableRecord
100
AcDbRegAppTableRecord
  2
ACAD_DSTYLE_DIMTALN
 70
     0
  0
APPID
  5
3D
330
6
100
AcDbSymbolTableRecord
100
AcDbRegAppTableRecord
  2
ACAD_NAV_VCDISPLAY
 70
     0
  0
APPID
  5
2C
330
6
100
AcDbSymbolTableRecord
100
AcDbRegAppTableRecord
  2
ACAD_PSEXT
 70
     0
  0
APPID
  5
88
330
6
100
AcDbSymbolTableRecord
100
AcDbRegAppTableRecord
  2
AcAecLayerStandard
 70
     0
  0
APPID
  5
89
330
6
100
AcDbSymbolTableRecord
100
AcDbRegAppTableRecord
  2
AcCmTransparency
 70
     0
  0
APPID
  5
8A
330
6
100
AcDbSymbolTableRecord
100
AcDbRegAppTableRecord
  2
GradientColor1ACI
 70
     0
  0
APPID
  5
8B
330
6
100
AcDbSymbolTableRecord
100
AcDbRegAppTableRecord
  2
GradientColor2ACI
 70
     0
  0
APPID
  5
1C
330
6
100
AcDbSymbolTableRecord
100
AcDbRegAppTableRecord
  2
ACAD_DSTYLE_DIMBREAK
 70
     0
  0
APPID
  5
5
330
6
100
AcDbSymbolTableRecord
100
AcDbRegAppTableRecord
  2
AcLayerTools
 70
     0
  0
APPID
  5
891
330
6
100
AcDbSymbolTableRecord
100
AcDbRegAppTableRecord
  2
ACAD_MLEADERVER
 70
     0
  0
ENDTAB
  0
TABLE
  2
DIMSTYLE
  5
1B
330
0
100
AcDbSymbolTable
 70
     6
100
AcDbDimStyleTable
  0
DIMSTYLE
105
1A
330
1B
100
AcDbSymbolTableRecord
100
AcDbDimStyleTableRecord
  2
1X
 70
     0
  3
"
  4
mm
 40
0.5
 42
0.18
141
-0.18
147
0.18
171
     0
176
   256
177
   256
178
     0
271
     3
272
     3
274
     0
277
     5
289
     0
340
14
1001
ACAD_DSTYLE_DIMBREAK
1070
   391
1040
0.125
1001
ACAD_DSTYLE_DIMJAG
1070
   388
1040
1.5
1001
ACAD_DSTYLE_DIMTALN
1070
   392
1070
     0
  0
DIMSTYLE
105
1C4
330
1B
100
AcDbSymbolTableRecord
100
AcDbDimStyleTableRecord
  2
Standard
 70
     0
178
     0
340
14
  0
ENDTAB
  0
TABLE
  2
BLOCK_RECORD
  5
21
330
0
100
AcDbSymbolTable
 70
     2
  0
BLOCK_RECORD
  5
22
102
{ACAD_XDICTIONARY
360
23
102
}
330
21
100
AcDbSymbolTableRecord
100
AcDbBlockTableRecord
  2
*Model_Space
340
2A
 70
     0
280
     1
281
     0
  0
BLOCK_RECORD
  5
2D
330
21
100
AcDbSymbolTableRecord
100
AcDbBlockTableRecord
  2
*Paper_Space
340
30
 70
     0
280
     1
281
     0
  0
BLOCK_RECORD
  5
1EA
330
21
100
AcDbSymbolTableRecord
100
AcDbBlockTableRecord
  2
base
340
0
102
{BLKREFS
331
210
102
}
 70
     1
280
     1
281
     0
  0
ENDTAB
  0
ENDSEC
  0
SECTION
  2
BLOCKS
  0
BLOCK
  5
25
330
22
100
AcDbEntity
  8
0
100
AcDbBlockBegin
  2
*Model_Space
 70
     0
 10
0.0
 20
0.0
 30
0.0
  3
*Model_Space
  1

  0
ENDBLK
  5
29
330
22
100
AcDbEntity
  8
0
100
AcDbBlockEnd
  0
BLOCK
  5
2E
330
2D
100
AcDbEntity
 67
     1
  8
0
100
AcDbBlockBegin
  2
*Paper_Space
 70
     0
 10
0.0
 20
0.0
 30
0.0
  3
*Paper_Space
  1

  0
ENDBLK
  5
2F
330
2D
100
AcDbEntity
 67
     1
  8
0
100
AcDbBlockEnd
  0
BLOCK
  5
1EB
330
1EA
100
AcDbEntity
  8
0
100
AcDbBlockBegin
  2
base
 70
     0
 10
0.0
 20
0.0
 30
0.0
  3
base
  1

  0
ARC
  5
1EC
330
1EA
100
AcDbEntity
  8
0
100
AcDbCircle
 10
7.362419850811199
 20
9.240416821829239
 30
0.0
 40
3.817852979413802
100
AcDbArc
 50
84.62164100455601
 51
95.37835899544399
  0
ARC
  5
1ED
330
1EA
100
AcDbEntity
  8
0
100
AcDbCircle
 10
7.362419850811199
 20
15.35227116775754
 30
0.0
 40
3.817852979413849
100
AcDbArc
 50
264.6216410045561
 51
275.3783589954439
  0
ARC
  5
1EE
330
1EA
100
AcDbEntity
  8
0
100
AcDbCircle
 10
4.253046336976418
 20
12.29634399479336
 30
0.0
 40
3.606062408178216
100
AcDbArc
 50
349.1754127170719
 51
10.82458728292807
  0
ARC
  5
1EF
330
1EA
100
AcDbEntity
  8
0
100
AcDbCircle
 10
-7.712398441772627
 20
12.95778935680449
 30
0.0
 40
0.0840421141021031
210
0.0
220
0.0
230
-1.0
100
AcDbArc
 50
95.3783589954432
 51
169.1754127170728
  0
ARC
  5
1F0
330
1EA
100
AcDbEntity
  8
0
100
AcDbCircle
 10
7.012441259849772
 20
12.95778935680449
 30
0.0
 40
0.0840421141021037
100
AcDbArc
 50
95.37835899544379
 51
169.1754127170728
  0
ARC
  5
1F1
330
1EA
100
AcDbEntity
  8
0
100
AcDbCircle
 10
7.012441259849773
 20
11.63489863278224
 30
0.0
 40
0.084042114102104
100
AcDbArc
 50
190.8245872829271
 51
264.6216410045562
  0
ARC
  5
1F2
330
1EA
100
AcDbEntity
  8
0
100
AcDbCircle
 10
-7.712398441772627
 20
11.63489863278224
 30
0.0
 40
0.0840421141021033
210
0.0
220
0.0
230
-1.0
100
AcDbArc
 50
190.8245872829285
 51
264.6216410045568
  0
ARC
  5
1F3
330
1EA
100
AcDbEntity
  8
0
100
AcDbCircle
 10
10.47179336464597
 20
12.29634399479336
 30
0.0
 40
3.567403035691235
100
AcDbArc
 50
169.1754127170719
 51
190.824587282928
  0
ARC
  5
1F4
330
1EA
100
AcDbEntity
  8
0
100
AcDbCircle
 10
7.362419850811199
 20
9.240416821829239
 30
0.0
 40
3.779193606926834
100
AcDbArc
 50
84.62164100455601
 51
95.37835899544399
  0
ARC
  5
1F5
330
1EA
100
AcDbEntity
  8
0
100
AcDbCircle
 10
7.012441259849772
 20
12.95778935680449
 30
0.0
 40
0.0453827416151359
100
AcDbArc
 50
95.37835899544363
 51
169.1754127170726
  0
ARC
  5
1F6
330
1EA
100
AcDbEntity
  8
0
100
AcDbCircle
 10
-7.712398441772627
 20
12.95778935680449
 30
0.0
 40
0.0453827416151352
210
0.0
220
0.0
230
-1.0
100
AcDbArc
 50
95.37835899544251
 51
169.1754127170726
  0
ARC
  5
1F7
330
1EA
100
AcDbEntity
  8
0
100
AcDbCircle
 10
4.253046336976418
 20
12.29634399479336
 30
0.0
 40
3.567403035691248
100
AcDbArc
 50
349.175412717072
 51
10.82458728292806
  0
ARC
  5
1F8
330
1EA
100
AcDbEntity
  8
0
100
AcDbCircle
 10
-7.712398441772627
 20
11.63489863278224
 30
0.0
 40
0.0453827416151354
210
0.0
220
0.0
230
-1.0
100
AcDbArc
 50
190.8245872829298
 51
264.6216410045553
  0
ARC
  5
1F9
330
1EA
100
AcDbEntity
  8
0
100
AcDbCircle
 10
7.362419850811199
 20
15.35227116775754
 30
0.0
 40
3.779193606926881
100
AcDbArc
 50
264.6216410045561
 51
275.3783589954439
  0
ARC
  5
1FA
330
1EA
100
AcDbEntity
  8
0
100
AcDbCircle
 10
7.012441259849773
 20
11.63489863278224
 30
0.0
 40
0.0453827416151361
100
AcDbArc
 50
190.8245872829272
 51
264.6216410045564
  0
ARC
  5
1FB
330
1EA
100
AcDbEntity
  8
0
100
AcDbCircle
 10
10.47179336464597
 20
12.29634399479336
 30
0.0
 40
3.459829129640542
100
AcDbArc
 50
171.0606081446842
 51
188.9393918553158
  0
ARC
  5
1FC
330
1EA
100
AcDbEntity
  8
0
100
AcDbCircle
 10
4.253046336976418
 20
12.29634399479336
 30
0.0
 40
3.459829129640555
100
AcDbArc
 50
351.0606081446842
 51
8.93939185531582
  0
ARC
  5
1FD
330
1EA
100
AcDbEntity
  8
0
100
AcDbCircle
 10
7.362419850811199
 20
9.240416821829239
 30
0.0
 40
3.671619700876141
100
AcDbArc
 50
86.39771400812862
 51
93.60228599187144
  0
ARC
  5
1FE
330
1EA
100
AcDbEntity
  8
0
100
AcDbCircle
 10
7.362419850811199
 20
15.35227116775754
 30
0.0
 40
3.671619700876188
100
AcDbArc
 50
266.3977140081286
 51
273.6022859918714
  0
ARC
  5
1FF
330
1EA
100
AcDbEntity
  8
0
100
AcDbCircle
 10
-7.587828566182909
 20
12.82090615321369
 30
0.0
 40
0.0840421141021037
210
0.0
220
0.0
230
-1.0
100
AcDbArc
 50
93.60228599187145
 51
171.0606081446843
  0
ARC
  5
200
330
1EA
100
AcDbEntity
  8
0
100
AcDbCircle
 10
7.137011135439489
 20
12.82090615321369
 30
0.0
 40
0.0840421141021041
100
AcDbArc
 50
93.60228599187086
 51
171.0606081446844
  0
ARC
  5
201
330
1EA
100
AcDbEntity
  8
0
100
AcDbCircle
 10
7.137011135439489
 20
11.77178183637304
 30
0.0
 40
0.0840421141021039
100
AcDbArc
 50
188.9393918553156
 51
266.3977140081291
  0
ARC
  5
202
330
1EA
100
AcDbEntity
  8
0
100
AcDbCircle
 10
7.587828566182909
 20
11.77178183637304
 30
0.0
 40
0.0840421141021036
100
AcDbArc
 50
273.6022859918714
 51
351.060608144683
  0
ARC
  5
203
330
1EA
100
AcDbEntity
  8
0
100
AcDbCircle
 10
10.47179336464597
 20
12.29634399479336
 30
0.0
 40
3.606062408178203
100
AcDbArc
 50
169.1754127170719
 51
190.824587282928
  0
ENDBLK
  5
204
330
1EA
100
AcDbEntity
  8
0
100
AcDbBlockEnd
  0
ENDSEC
  0
SECTION
  2
ENTITIES
  0
LWPOLYLINE
  5
7B
102
{ACAD_REACTORS
330
19F
102
}
330
22
100
AcDbEntity
  8
0
 62
     0
 48
0.2
100
AcDbPolyline
 90
       12
 70
     1
 43
0.0
 10
12.50130393382506
 20
9.914579895156052
 10
11.71838751344444
 20
9.914579895156052
 10
11.71838751344467
 20
12.26541151022887
 10
10.51791129948197
 20
12.26541151022887
 10
10.51791129948197
 20
9.914579895156052
 10
9.57840722564606
 20
9.914579895156052
 10
9.57840722564606
 20
9.958989180480543
 10
10.42909272883298
 20
9.958989180480543
 10
10.42909272883298
 20
12.35423008087785
 10
11.80720608409365
 20
12.35423008087785
 10
11.80720608409342
 20
9.958989180480543
 10
12.50130393382506
 20
9.958989180480543
  0
LINE
  5
7C
330
22
100
AcDbEntity
  8
0
 62
     0
 48
0.2
100
AcDbLine
 10
10.56380071225976
 20
9.879852140931447
 30
0.0
 11
11.36039329183996
 21
9.384256787940998
 31
0.0
  0
LINE
  5
7D
330
22
100
AcDbEntity
  8
0
 62
     0
 48
0.2
100
AcDbLine
 10
11.36039329183996
 20
9.384256787940998
 30
0.0
 11
11.36039329183996
 21
11.91229139976075
 31
0.0
  0
LINE
  5
7E
330
22
100
AcDbEntity
  8
0
 62
     0
 48
0.2
100
AcDbLine
 10
11.36039329183996
 20
11.91229139976075
 30
0.0
 11
10.56380071225976
 21
12.23068375600427
 31
0.0
  0
LINE
  5
7F
330
22
100
AcDbEntity
  8
0
 62
     0
 48
0.2
100
AcDbLine
 10
10.56380071225976
 20
12.23068375600427
 30
0.0
 11
10.56380071225976
 21
9.879852140931447
 31
0.0
  0
LINE
  5
80
330
22
100
AcDbEntity
  8
0
 48
0.2
100
AcDbLine
 10
11.41176645473047
 20
9.404790273689727
 30
0.0
 11
11.36039329183996
 21
9.384256787940998
 31
0.0
  0
LINE
  5
81
330
22
100
AcDbEntity
  8
0
 62
     0
 48
0.2
100
AcDbLine
 10
10.61517387515028
 20
12.251217241753
 30
0.0
 11
10.56380071225976
 21
12.23068375600427
 31
0.0
  0
LINE
  5
82
330
22
100
AcDbEntity
  8
0
 62
     0
 48
0.2
100
AcDbLine
 10
11.41176645473047
 20
11.93282488550948
 30
0.0
 11
10.61517387515028
 21
12.251217241753
 31
0.0
  0
LINE
  5
83
330
22
100
AcDbEntity
  8
0
 62
     0
 48
0.2
100
AcDbLine
 10
11.41176645473047
 20
11.93282488550948
 30
0.0
 11
11.36039329183996
 21
11.91229139976075
 31
0.0
  0
LINE
  5
84
330
22
100
AcDbEntity
  8
0
 62
     0
 48
0.2
100
AcDbLine
 10
11.41176645473047
 20
9.404790273689727
 30
0.0
 11
11.41176645473047
 21
11.93282488550948
 31
0.0
  0
ELLIPSE
  5
85
330
22
100
AcDbEntity
  8
0
 62
     0
 48
0.2
100
AcDbEllipse
 10
11.28338297046821
 20
10.55240166217446
 30
0.0
 11
-0.01311436741831319
 21
0.03281111360398401
 31
0.0
210
0.0
220
0.0
230
1.0
 40
0.7885377469951378
 41
0.0
 42
6.283185307179586
  0
MTEXT
  5
17E
330
22
100
AcDbEntity
  8
TEXT
 62
     0
 48
0.2
100
AcDbMText
 10
8.794358095161101
 20
13.7679958209562
 30
0.0
 40
0.1
 41
2.158383989585673
 46
0.0
 71
     1
 72
     5
  1
\pxqr;OUTSIDE \PRESTROOM
 73
     1
 44
1.0
1001
ACAD
1000
ACAD_MTEXT_COLUMN_INFO_BEGIN
1070
    75
1070
     2
1070
    79
1070
     0
1070
    76
1070
     1
1070
    78
1070
     0
1070
    48
1040
2.158383989585673
1070
    49
1040
18.60056449270376
1070
    50
1070
     1
1040
1.129969163246648
1000
ACAD_MTEXT_COLUMN_INFO_END
  0
MTEXT
  5
17F
330
22
100
AcDbEntity
  8
TEXT
 62
     0
 48
0.2
100
AcDbMText
 10
11.29652448871957
 20
13.7679276081322
 30
0.0
 40
0.1
 41
2.158383989585673
 46
0.0
 71
     1
 72
     5
  1
INSIDE \PRESTROOM
 73
     1
 44
1.0
1001
ACAD
1000
ACAD_MTEXT_COLUMN_INFO_BEGIN
1070
    75
1070
     2
1070
    79
1070
     0
1070
    76
1070
     1
1070
    78
1070
     0
1070
    48
1040
2.158383989585673
1070
    49
1040
18.60056449270376
1070
    50
1070
     1
1040
1.129969163246648
1000
ACAD_MTEXT_COLUMN_INFO_END
  0
LINE
  5
180
330
22
100
AcDbEntity
  8
0
 48
0.2
100
AcDbLine
 10
9.694408043219028
 20
13.00772571699679
 30
0.0
 11
14.87554984734993
 21
13.00772571699679
 31
0.0
  0
LINE
  5
182
330
22
100
AcDbEntity
  8
PHANTOM
100
AcDbLine
 10
11.11814940646332
 20
11.63154840042425
 30
0.0
 11
11.11814940646332
 21
11.63154840042425
 31
0.0
  0
LINE
  5
185
330
22
100
AcDbEntity
  8
PHANTOM
100
AcDbLine
 10
11.11814940646332
 20
11.63154840042425
 30
0.0
 11
11.11814940646332
 21
11.63154840042425
 31
0.0
  0
CIRCLE
  5
188
330
22
100
AcDbEntity
  8
0
 62
     0
 48
0.2
100
AcDbCircle
 10
14.29173645624007
 20
11.58562020740568
 30
0.0
 40
0.0246278965116505
  0
CIRCLE
  5
189
330
22
100
AcDbEntity
  8
0
 62
     0
 48
0.2
100
AcDbCircle
 10
14.29173645624007
 20
10.83923937978598
 30
0.0
 40
0.0246278965116505
  0
LWPOLYLINE
  5
18A
330
22
100
AcDbEntity
  8
0
 62
     0
 48
0.2
100
AcDbPolyline
 90
        8
 70
     1
 43
0.0
 10
14.1508889920093
 20
11.05221825295767
 10
14.43745577909942
 20
11.05221825295767
 42
0.414213562373095
 10
14.44945577909959
 20
11.06421825295767
 10
14.44945577909959
 20
11.35428850770025
 42
0.414213562373095
 10
14.43745577909942
 20
11.36628850770022
 10
14.1508889920093
 20
11.36628850770022
 42
0.414213562373095
 10
14.13888899200936
 20
11.35428850770025
 10
14.13888899200936
 20
11.06421825295767
 42
0.414213562373095
  0
MTEXT
  5
18B
330
22
100
AcDbEntity
  8
0
 62
     0
 48
0.2
100
AcDbMText
 10
14.03576871875043
 20
11.266513317028
 30
0.0
 40
0.0324
 41
0.5176113118170633
 46
0.0
 71
     1
 72
     5
  1
\pxqc;ASSISTANCE\PREQUESTED
 73
     1
 44
1.0
1001
ACAD
1000
ACAD_MTEXT_COLUMN_INFO_BEGIN
1070
    75
1070
     2
1070
    79
1070
     0
1070
    76
1070
     1
1070
    78
1070
     0
1070
    48
1040
0.5176113118170633
1070
    49
1040
18.60056449270376
1070
    50
1070
     1
1040
0.3298567767751611
1000
ACAD_MTEXT_COLUMN_INFO_END
  0
MTEXT
  5
18C
330
22
100
AcDbEntity
  8
TEXT
 62
     0
 48
0.2
100
AcDbMText
 10
8.174312538761114
 20
12.54213616716385
 30
0.0
 40
0.09
 41
1.082571289155567
 46
0.69399
 71
     1
 72
     5
  1
{\pxqr; CM-AF141SO\P"Assistance Required"\PDome Light\Pand Sounder}
 73
     1
 44
1.0
1001
ACAD
1000
ACAD_MTEXT_COLUMN_INFO_BEGIN
1070
    75
1070
     2
1070
    79
1070
     0
1070
    76
1070
     1
1070
    78
1070
     0
1070
    48
1040
1.082571289155567
1070
    49
1040
1.082571289155567
1070
    50
1070
     1
1040
1.129969163246648
1000
ACAD_MTEXT_COLUMN_INFO_END
1000
ACAD_MTEXT_DEFINED_HEIGHT_BEGIN
1070
    46
1040
0.69399
1000
ACAD_MTEXT_DEFINED_HEIGHT_END
  0
MTEXT
  5
192
330
22
100
AcDbEntity
  8
0
 62
     0
 48
0.2
100
AcDbMText
 10
14.63121767155587
 20
11.52042939433879
 30
0.0
 40
0.045
 41
0.5176113118170633
 46
0.0
 71
     1
 72
     5
  1
\pxqc;PRESS FOR\PEMERGENCY\PASSISTANCE
 73
     1
 44
1.0
1001
ACAD
1000
ACAD_MTEXT_COLUMN_INFO_BEGIN
1070
    75
1070
     2
1070
    79
1070
     0
1070
    76
1070
     1
1070
    78
1070
     0
1070
    48
1040
0.5176113118170633
1070
    49
1040
18.60056449270376
1070
    50
1070
     1
1040
0.3298567767751611
1000
ACAD_MTEXT_COLUMN_INFO_END
  0
HATCH
  5
193
330
22
100
AcDbEntity
  8
HATCH
 62
     0
 48
0.2
100
AcDbHatch
 10
0.0
 20
0.0
 30
0.0
210
0.0
220
0.0
230
1.0
  2
ANSI37
 70
     0
 71
     1
 91
        1
 92
        1
 93
        1
 72
     2
 10
14.87554984735004
 20
11.1174097207314
 40
0.1621990306784937
 50
0.0
 51
360.0
 73
     1
 97
        1
330
197
 75
     1
 76
     1
 52
0.0
 41
0.2
 77
     0
 78
     2
 53
45.0
 43
870.1800385405887
 44
110.7860714213682
 45
-0.0176776695296637
 46
0.0176776695296637
 79
     0
 53
135.0
 43
870.1800385405887
 44
110.7860714213682
 45
-0.0176776695296637
 46
-0.0176776695296637
 79
     0
 98
        1
 10
1312.230992907118
 20
147.5064315221503
1001
GradientColor1ACI
1070
     5
1001
GradientColor2ACI
1070
     2
1001
ACAD
1010
0.0
1020
0.0
1030
0.0
  0
CIRCLE
  5
197
102
{ACAD_REACTORS
330
193
102
}
330
22
100
AcDbEntity
  8
0
 62
     0
 48
0.2
100
AcDbCircle
 10
14.87554984735004
 20
11.1174097207314
 30
0.0
 40
0.1621990306784937
  0
CIRCLE
  5
198
330
22
100
AcDbEntity
  8
0
 62
     0
 48
0.2
100
AcDbCircle
 10
14.87554984735004
 20
11.58562020740568
 30
0.0
 40
0.0246278965116505
  0
CIRCLE
  5
199
330
22
100
AcDbEntity
  8
0
 62
     0
 48
0.2
100
AcDbCircle
 10
14.87554984735004
 20
10.83923937978601
 30
0.0
 40
0.0246278965116505
  0
MTEXT
  5
19A
330
22
100
AcDbEntity
  8
TEXT
 62
     0
 48
0.2
100
AcDbMText
 10
13.70863423703929
 20
10.60309301755163
 30
0.0
 40
0.09
 41
1.925730532089204
 46
0.70173
 71
     1
 72
     5
  1
{\pxqc;CM-AF540SO PUSH BUTTON\P"PRESS FOR EMERGENCY\PASSISTANCE" AND "ASSISTANCE REQUESTED" ANNUNCIATOR & SOUND}
 73
     1
 44
1.0
1001
ACAD
1000
ACAD_MTEXT_COLUMN_INFO_BEGIN
1070
    75
1070
     2
1070
    79
1070
     0
1070
    76
1070
     1
1070
    78
1070
     0
1070
    48
1040
1.925730532089204
1070
    49
1040
1.925730532089204
1070
    50
1070
     1
1040
1.129969163246648
1000
ACAD_MTEXT_COLUMN_INFO_END
1000
ACAD_MTEXT_DEFINED_HEIGHT_BEGIN
1070
    46
1040
0.70173
1000
ACAD_MTEXT_DEFINED_HEIGHT_END
  0
LINE
  5
19B
330
22
100
AcDbEntity
  8
0
 62
     0
 48
0.2
100
AcDbLine
 10
14.87554984734993
 20
11.72295244687923
 30
0.0
 11
14.87554984734993
 21
13.00772571699679
 31
0.0
  0
LINE
  5
19E
330
22
100
AcDbEntity
  8
PHANTOM
 62
     0
 48
0.2
100
AcDbLine
 10
11.11814940646332
 20
13.73323101722855
 30
0.0
 11
11.11814940646332
 21
9.373445514539526
 31
0.0
  0
HATCH
  5
19F
330
22
100
AcDbEntity
  8
0
100
AcDbHatch
 10
0.0
 20
0.0
 30
0.0
210
0.0
220
0.0
230
1.0
  2
DOTS
 70
     0
 71
     1
 91
        1
 92
        1
 93
       12
 72
     1
 10
12.50130393382506
 20
9.914579895156052
 11
11.71838751344444
 21
9.914579895156052
 72
     1
 10
11.71838751344444
 20
9.914579895156052
 11
11.71838751344467
 21
12.26541151022887
 72
     1
 10
11.71838751344467
 20
12.26541151022887
 11
10.51791129948197
 21
12.26541151022887
 72
     1
 10
10.51791129948197
 20
12.26541151022887
 11
10.51791129948197
 21
9.914579895156052
 72
     1
 10
10.51791129948197
 20
9.914579895156052
 11
9.57840722564606
 21
9.914579895156052
 72
     1
 10
9.57840722564606
 20
9.914579895156052
 11
9.57840722564606
 21
9.958989180480543
 72
     1
 10
9.57840722564606
 20
9.958989180480543
 11
10.42909272883298
 21
9.958989180480543
 72
     1
 10
10.42909272883298
 20
9.958989180480543
 11
10.42909272883298
 21
12.35423008087785
 72
     1
 10
10.42909272883298
 20
12.35423008087785
 11
11.80720608409365
 21
12.35423008087785
 72
     1
 10
11.80720608409365
 20
12.35423008087785
 11
11.80720608409342
 21
9.958989180480543
 72
     1
 10
11.80720608409342
 20
9.958989180480543
 11
12.50130393382506
 21
9.958989180480543
 72
     1
 10
12.50130393382506
 20
9.958989180480543
 11
12.50130393382506
 21
9.914579895156052
 97
        1
330
7B
 75
     0
 76
     1
 52
0.0
 41
0.4
 77
     0
 78
     1
 53
0.0
 43
870.311802951745
 44
110.2262003247563
 45
0.0125
 46
0.025
 79
     2
 49
0.0
 49
-0.025
 98
        1
 10
870.311802951745
 20
110.2262003247563
1001
ACAD
1010
0.0
1020
0.0
1030
0.0
  0
MTEXT
  5
1A1
330
22
100
AcDbEntity
  8
TEXT
 62
     7
100
AcDbMText
 10
13.50818101604602
 20
13.89178863559015
 30
0.0
 40
0.0794061986562156
 41
2.223274007327859
 46
0.4777870973144491
 71
     1
 72
     5
  1
{\pxqc;IN THE EVENT OF AN EMERGENCY\PPUSH EMERGENCY BUTTON\PAND AUDIBLE AND VISUAL SIGNAL\PWILL ACTIVE.}
 73
     1
 44
1.0
1001
ACAD
1000
ACAD_MTEXT_DEFINED_HEIGHT_BEGIN
1070
    46
1040
0.4777870973144491
1000
ACAD_MTEXT_DEFINED_HEIGHT_END
  0
LWPOLYLINE
  5
1A2
330
22
100
AcDbEntity
  8
TEXT
 62
     7
100
AcDbPolyline
 90
        4
 70
     1
 43
0.0
 10
13.60988995116008
 20
13.96797906567704
 10
13.60988995116008
 20
13.32093612089177
 10
15.60853371394126
 20
13.32093612089177
 10
15.60853371394126
 20
13.96797906567704
  0
MTEXT
  5
1A3
330
22
100
AcDbEntity
  8
TEXT
 62
     0
 48
0.2
100
AcDbMText
 10
14.07359640665788
 20
13.21746658590502
 30
0.0
 40
0.09
 41
1.082571289155567
 46
0.09153
 71
     1
 72
     5
  1
{\pxqc;CM-SE21A}
 73
     1
 44
1.0
1001
ACAD
1000
ACAD_MTEXT_COLUMN_INFO_BEGIN
1070
    75
1070
     2
1070
    79
1070
     0
1070
    76
1070
     1
1070
    78
1070
     0
1070
    48
1040
1.082571289155567
1070
    49
1040
18.60056449270376
1070
    50
1070
     1
1040
1.129969163246648
1000
ACAD_MTEXT_COLUMN_INFO_END
1000
ACAD_MTEXT_DEFINED_HEIGHT_BEGIN
1070
    46
1040
0.09153
1000
ACAD_MTEXT_DEFINED_HEIGHT_END
  0
ARC
  5
20C
330
22
100
AcDbEntity
  8
0
100
AcDbCircle
 10
9.746991135174426
 20
12.1906591891787
 30
0.0
 40
0.3099577249928412
100
AcDbArc
 50
80.06051854379044
 51
99.93948145623119
  0
ARC
  5
20D
330
22
100
AcDbEntity
  8
0
100
AcDbCircle
 10
9.746991135174426
 20
12.14064724856073
 30
0.0
 40
0.3099577249928406
100
AcDbArc
 50
260.0605185437688
 51
279.9394814562095
  0
ARC
  5
20E
330
22
100
AcDbEntity
  8
0
100
AcDbCircle
 10
8.011603635770143
 20
12.16565321886971
 30
0.0
 40
1.819128423229725
100
AcDbArc
 50
349.5383856488926
 51
10.46161435110738
  0
ARC
  5
20F
330
22
100
AcDbEntity
  8
0
100
AcDbCircle
 10
11.48237863457871
 20
12.16565321886971
 30
0.0
 40
1.819128423229763
100
AcDbArc
 50
169.5383856488937
 51
190.4616143511059
  0
INSERT
  5
210
330
22
100
AcDbEntity
  8
0
100
AcDbBlockReference
  2
base
 10
5.009202362580822
 20
4.393306047759708
 30
0.0
 41
0.6331717669470771
 42
0.6331717669470771
 43
0.6331717669470771
  0
LINE
  5
211
330
22
100
AcDbEntity
  8
0
100
AcDbLine
 10
9.800492280951744
 20
11.83534179711374
 30
0.0
 11
9.849435857656431
 21
11.80752755642479
 31
0.0
  0
LINE
  5
212
330
22
100
AcDbEntity
  8
0
100
AcDbLine
 10
9.693489989396994
 20
11.83534179711374
 30
0.0
 11
9.49232163939405
 21
11.80752755642479
 31
0.0
  0
LINE
  5
213
330
22
100
AcDbEntity
  8
0
100
AcDbLine
 10
9.800492280951744
 20
12.49596464062569
 30
0.0
 11
9.849435857656431
 21
12.55048024743942
 31
0.0
  0
LINE
  5
214
330
22
100
AcDbEntity
  8
0
100
AcDbLine
 10
9.693489989396994
 20
12.49596464062569
 30
0.0
 11
9.49232163939405
 21
12.55048024743942
 31
0.0
  0
LINE
  5
215
330
22
100
AcDbEntity
  8
0
100
AcDbLine
 10
9.694408043219028
 20
13.00772571699679
 30
0.0
 11
9.691459019392255
 21
12.66134620398428
 31
0.0
  0
LINE
  5
2A8
330
22
100
AcDbEntity
  8
TITLEBLOCK
100
AcDbLine
 10
1.513307501933355
 20
15.87128922138162
 30
0.0
 11
18.51330108481034
 21
15.87128922138162
 31
0.0
  0
LINE
  5
2A9
330
22
100
AcDbEntity
  8
TITLEBLOCK
100
AcDbLine
 10
1.513307501933355
 20
15.87128922138162
 30
0.0
 11
1.513307501933355
 21
4.807801334112412
 31
0.0
  0
LINE
  5
2AA
330
22
100
AcDbEntity
  8
TITLEBLOCK
100
AcDbLine
 10
18.51330108481034
 20
4.807801334112412
 30
0.0
 11
1.513307501933355
 21
4.807801334112412
 31
0.0
  0
LINE
  5
2AB
330
22
100
AcDbEntity
  8
TITLEBLOCK
100
AcDbLine
 10
18.51330108481034
 20
4.807801334112412
 30
0.0
 11
18.51330108481034
 21
15.87128922138162
 31
0.0
  0
LINE
  5
2AC
330
22
100
AcDbEntity
  8
TITLEBLOCK
100
AcDbLine
 10
18.51330108481034
 20
10.33492452197414
 30
0.0
 11
18.58581434599444
 21
10.36083969047077
 31
0.0
  0
LINE
  5
2AD
330
22
100
AcDbEntity
  8
TITLEBLOCK
100
AcDbLine
 10
18.51330108481034
 20
10.33492452197414
 30
0.0
 11
18.58581434599444
 21
10.31055405923249
 31
0.0
  0
LINE
  5
2AE
330
22
100
AcDbEntity
  8
TITLEBLOCK
100
AcDbLine
 10
18.58581434599444
 20
10.36083969047077
 30
0.0
 11
18.58581434599444
 21
10.31055405923249
 31
0.0
  0
LINE
  5
2AF
330
22
100
AcDbEntity
  8
TITLEBLOCK
100
AcDbLine
 10
18.51330108481034
 20
10.33492452197414
 30
0.0
 11
18.58581434599444
 21
10.34467999076232
 31
0.0
  0
LINE
  5
2B0
330
22
100
AcDbEntity
  8
TITLEBLOCK
100
AcDbLine
 10
18.51330108481034
 20
10.33492452197414
 30
0.0
 11
18.58581434599444
 21
10.32379830139458
 31
0.0
  0
LINE
  5
2B1
330
22
100
AcDbEntity
  8
TITLEBLOCK
100
AcDbLine
 10
18.51330108481034
 20
7.56905255015684
 30
0.0
 11
18.64822166880151
 21
7.56905255015684
 31
0.0
  0
LINE
  5
2B2
330
22
100
AcDbEntity
  8
TITLEBLOCK
100
AcDbLine
 10
1.513307501933355
 20
10.33954527774701
 30
0.0
 11
1.440794240749256
 21
10.31517481500535
 31
0.0
  0
LINE
  5
2B3
330
22
100
AcDbEntity
  8
TITLEBLOCK
100
AcDbLine
 10
1.513307501933355
 20
10.33954527774701
 30
0.0
 11
1.440794240749256
 21
10.36546044624363
 31
0.0
  0
LINE
  5
2B4
330
22
100
AcDbEntity
  8
TITLEBLOCK
100
AcDbLine
 10
1.513307501933355
 20
10.33954527774701
 30
0.0
 11
1.37838691794218
 21
10.33954527774701
 31
0.0
  0
LINE
  5
2B5
330
22
100
AcDbEntity
  8
TITLEBLOCK
100
AcDbLine
 10
1.513307501933355
 20
13.10541724956431
 30
0.0
 11
1.37838691794218
 21
13.10541724956431
 31
0.0
  0
LINE
  5
2B6
330
22
100
AcDbEntity
  8
TITLEBLOCK
100
AcDbLine
 10
13.70981339154469
 20
6.531759566023197
 30
0.0
 11
13.70981339154469
 21
4.807801334112412
 31
0.0
  0
LINE
  5
2B7
330
22
100
AcDbEntity
  8
TITLEBLOCK
100
AcDbLine
 10
15.53563618182488
 20
6.531759566023212
 30
0.0
 11
15.53563618182488
 21
4.807801334112412
 31
0.0
  0
LINE
  5
2B8
330
22
100
AcDbEntity
  8
TITLEBLOCK
100
AcDbLine
 10
15.53563618182488
 20
5.037582788278598
 30
0.0
 11
18.51330108481034
 21
5.037582788278598
 31
0.0
  0
LINE
  5
2B9
330
22
100
AcDbEntity
  8
TITLEBLOCK
100
AcDbLine
 10
15.53563618182488
 20
5.584796105820445
 30
0.0
 11
18.51330108481034
 21
5.584796105820445
 31
0.0
  0
LINE
  5
2BA
330
22
100
AcDbEntity
  8
TITLEBLOCK
100
AcDbLine
 10
15.96257320850248
 20
5.584796105820445
 30
0.0
 11
15.96257320850248
 21
5.037582788278598
 31
0.0
  0
LINE
  5
2BB
330
22
100
AcDbEntity
  8
TITLEBLOCK
100
AcDbLine
 10
16.42410065432591
 20
5.037582788278598
 30
0.0
 11
16.42410065432591
 21
4.807801334112412
 31
0.0
  0
LINE
  5
2BC
330
22
100
AcDbEntity
  8
TITLEBLOCK
100
AcDbLine
 10
17.89597433223526
 20
5.584796105820445
 30
0.0
 11
17.89597433223526
 21
5.037582788278598
 31
0.0
  0
LINE
  5
2BD
330
22
100
AcDbEntity
  8
TITLEBLOCK
100
AcDbLine
 10
17.47314828840877
 20
5.037582788278598
 30
0.0
 11
17.47314828840877
 21
4.807801334112412
 31
0.0
  0
LINE
  5
2BE
330
22
100
AcDbEntity
  8
TITLEBLOCK
100
AcDbLine
 10
13.70981339154469
 20
5.91614475191443
 30
0.0
 11
15.53563618182488
 21
5.91614475191443
 31
0.0
  0
LINE
  5
2BF
330
22
100
AcDbEntity
  8
TITLEBLOCK
100
AcDbLine
 10
13.70981339154469
 20
6.118525627901064
 30
0.0
 11
15.53563618182488
 21
6.118525627901064
 31
0.0
  0
LINE
  5
2C0
330
22
100
AcDbEntity
  8
TITLEBLOCK
100
AcDbLine
 10
13.70981339154469
 20
6.320906503887699
 30
0.0
 11
15.53563618182488
 21
6.320906503887699
 31
0.0
  0
LINE
  5
2C1
330
22
100
AcDbEntity
  8
TITLEBLOCK
100
AcDbLine
 10
15.53563618182488
 20
5.309002123954528
 30
0.0
 11
13.70981339154469
 21
5.309002123954528
 31
0.0
  0
LINE
  5
2C2
330
22
100
AcDbEntity
  8
TITLEBLOCK
100
AcDbLine
 10
15.01856765222931
 20
6.523287379874333
 30
0.0
 11
15.01856765222931
 21
5.309002123954528
 31
0.0
  0
LINE
  5
2C3
330
22
100
AcDbEntity
  8
TITLEBLOCK
100
AcDbLine
 10
14.51285593973159
 20
6.523287379874333
 30
0.0
 11
14.51285593973159
 21
5.309002123954528
 31
0.0
  0
LINE
  5
2C4
330
22
100
AcDbEntity
  8
TITLEBLOCK
100
AcDbLine
 10
15.53563618182488
 20
5.713763875927796
 30
0.0
 11
13.70981339154469
 21
5.713763875927796
 31
0.0
  0
LINE
  5
2C5
330
22
100
AcDbEntity
  8
TITLEBLOCK
100
AcDbLine
 10
16.38803204578278
 20
4.807801334112412
 30
0.0
 11
16.38803204578278
 21
4.71627206716694
 31
0.0
  0
LINE
  5
2C6
330
22
100
AcDbEntity
  8
TITLEBLOCK
100
AcDbLine
 10
14.26303284792311
 20
4.807801334112412
 30
0.0
 11
14.26303284792311
 21
4.71627206716694
 31
0.0
  0
LINE
  5
2C7
330
22
100
AcDbEntity
  8
TITLEBLOCK
100
AcDbLine
 10
12.13803365006356
 20
4.807801334112412
 30
0.0
 11
12.13803365006356
 21
4.71627206716694
 31
0.0
  0
LINE
  5
2C8
330
22
100
AcDbEntity
  8
TITLEBLOCK
100
AcDbLine
 10
10.0130344522039
 20
4.807801334112412
 30
0.0
 11
10.0130344522039
 21
4.71627206716694
 31
0.0
  0
LINE
  5
2C9
330
22
100
AcDbEntity
  8
TITLEBLOCK
100
AcDbLine
 10
7.888035254344231
 20
4.807801334112412
 30
0.0
 11
7.888035254344231
 21
4.71627206716694
 31
0.0
  0
LINE
  5
2CA
330
22
100
AcDbEntity
  8
TITLEBLOCK
100
AcDbLine
 10
8.185331315752364
 20
4.807801334112412
 30
0.0
 11
8.185331315752364
 21
4.664101462254123
 31
0.0
  0
LINE
  5
2CB
330
22
100
AcDbEntity
  8
TITLEBLOCK
100
AcDbLine
 10
4.84910758511387
 20
4.807801334112412
 30
0.0
 11
4.84910758511387
 21
4.664101462254123
 31
0.0
  0
LINE
  5
2CC
330
22
100
AcDbEntity
  8
TITLEBLOCK
100
AcDbLine
 10
3.638036858625014
 20
15.87128922138162
 30
0.0
 11
3.638036858625014
 21
15.96281848832707
 31
0.0
  0
LINE
  5
2CD
330
22
100
AcDbEntity
  8
TITLEBLOCK
100
AcDbLine
 10
5.763036056484566
 20
15.87128922138162
 30
0.0
 11
5.763036056484566
 21
15.96281848832707
 31
0.0
  0
LINE
  5
2CE
330
22
100
AcDbEntity
  8
TITLEBLOCK
100
AcDbLine
 10
7.888035254344231
 20
15.87128922138162
 30
0.0
 11
7.888035254344231
 21
15.96281848832707
 31
0.0
  0
LINE
  5
2CF
330
22
100
AcDbEntity
  8
TITLEBLOCK
100
AcDbLine
 10
10.0130344522039
 20
15.87128922138162
 30
0.0
 11
10.0130344522039
 21
15.96281848832707
 31
0.0
  0
LINE
  5
2D0
330
22
100
AcDbEntity
  8
TITLEBLOCK
100
AcDbLine
 10
12.13803365006356
 20
15.87128922138162
 30
0.0
 11
12.13803365006356
 21
15.96281848832707
 31
0.0
  0
LINE
  5
2D1
330
22
100
AcDbEntity
  8
TITLEBLOCK
100
AcDbLine
 10
14.26303284792311
 20
15.87128922138162
 30
0.0
 11
14.26303284792311
 21
15.96281848832707
 31
0.0
  0
LINE
  5
2D2
330
22
100
AcDbEntity
  8
TITLEBLOCK
100
AcDbLine
 10
16.38803204578278
 20
15.87128922138162
 30
0.0
 11
16.38803204578278
 21
15.96281848832707
 31
0.0
  0
LINE
  5
2D3
330
22
100
AcDbEntity
  8
TITLEBLOCK
100
AcDbLine
 10
10.0130344522039
 20
15.87128922138162
 30
0.0
 11
9.998731664142838
 21
15.91654945588742
 31
0.0
  0
LINE
  5
2D4
330
22
100
AcDbEntity
  8
TITLEBLOCK
100
AcDbLine
 10
10.0130344522039
 20
15.87128922138162
 30
0.0
 11
10.02658584742187
 21
15.91654945588742
 31
0.0
  0
LINE
  5
2D5
330
22
100
AcDbEntity
  8
TITLEBLOCK
100
AcDbLine
 10
10.02658584742187
 20
15.91654945588742
 30
0.0
 11
9.998731664142838
 21
15.91654945588742
 31
0.0
  0
LINE
  5
2D6
330
22
100
AcDbEntity
  8
TITLEBLOCK
100
AcDbLine
 10
10.00543730085815
 20
15.91654945588742
 30
0.0
 11
10.0130344522039
 21
15.87128922138162
 31
0.0
  0
LINE
  5
2D7
330
22
100
AcDbEntity
  8
TITLEBLOCK
100
AcDbLine
 10
10.01833275607987
 20
15.91654945588742
 30
0.0
 11
10.0130344522039
 21
15.87128922138162
 31
0.0
  0
LINE
  5
2D8
330
22
100
AcDbEntity
  8
TITLEBLOCK
100
AcDbLine
 10
10.0130344522039
 20
4.807801334112412
 30
0.0
 11
10.02658584742187
 21
4.770484275028039
 31
0.0
  0
LINE
  5
2D9
330
22
100
AcDbEntity
  8
TITLEBLOCK
100
AcDbLine
 10
10.02658584742187
 20
4.770484275028039
 30
0.0
 11
9.998731664142838
 21
4.770484275028039
 31
0.0
  0
LINE
  5
2DA
330
22
100
AcDbEntity
  8
TITLEBLOCK
100
AcDbLine
 10
9.998731664142838
 20
4.770484275028039
 30
0.0
 11
10.0130344522039
 21
4.807801334112412
 31
0.0
  0
MTEXT
  5
2DB
330
22
100
AcDbEntity
  8
TITLEBLOCK
100
AcDbMText
 10
18.63749739149193
 20
14.62886173739841
 30
0.0
 40
0.1011904379933157
 41
0.0
 46
0.0
 71
     1
 72
     1
  1
D
  7
SLDTEXTSTYLE0
 73
     1
 44
1.0
  0
MTEXT
  5
2DC
330
22
100
AcDbEntity
  8
TITLEBLOCK
100
AcDbMText
 10
18.61576627387774
 20
11.83771039279415
 30
0.0
 40
0.1011904379933157
 41
0.0
 46
0.0
 71
     1
 72
     1
  1
C
  7
SLDTEXTSTYLE0
 73
     1
 44
1.0
  0
MTEXT
  5
2DD
330
22
100
AcDbEntity
  8
TITLEBLOCK
100
AcDbMText
 10
18.65926049857035
 20
9.111244368945009
 30
0.0
 40
0.1011904379933157
 41
0.0
 46
0.0
 71
     1
 72
     1
  1
B
  7
SLDTEXTSTYLE0
 73
     1
 44
1.0
  0
MTEXT
  5
2DE
330
22
100
AcDbEntity
  8
TITLEBLOCK
100
AcDbMText
 10
18.62752951496816
 20
6.297920918991267
 30
0.0
 40
0.101190437993316
 41
0.0
 46
0.0
 71
     1
 72
     1
  1
A
  7
SLDTEXTSTYLE0
 73
     1
 44
1.0
  0
MTEXT
  5
2DF
330
22
100
AcDbEntity
  8
TITLEBLOCK
100
AcDbMText
 10
1.297173733574823
 20
6.279813969291055
 30
0.0
 40
0.101190437993316
 41
0.0
 46
0.0
 71
     1
 72
     1
  1
A
  7
SLDTEXTSTYLE0
 73
     1
 44
1.0
  0
MTEXT
  5
2E0
330
22
100
AcDbEntity
  8
TITLEBLOCK
100
AcDbMText
 10
1.297596609095763
 20
9.126525394507041
 30
0.0
 40
0.1011904379933157
 41
0.0
 46
0.0
 71
     1
 72
     1
  1
B
  7
SLDTEXTSTYLE0
 73
     1
 44
1.0
  0
MTEXT
  5
2E1
330
22
100
AcDbEntity
  8
TITLEBLOCK
100
AcDbMText
 10
1.298581727564056
 20
11.84339239967568
 30
0.0
 40
0.1011904379933157
 41
0.0
 46
0.0
 71
     1
 72
     1
  1
C
  7
SLDTEXTSTYLE0
 73
     1
 44
1.0
  0
MTEXT
  5
2E2
330
22
100
AcDbEntity
  8
TITLEBLOCK
100
AcDbMText
 10
1.299980654260594
 20
14.59275391169656
 30
0.0
 40
0.1011904379933157
 41
0.0
 46
0.0
 71
     1
 72
     1
  1
D
  7
SLDTEXTSTYLE0
 73
     1
 44
1.0
  0
MTEXT
  5
2E3
330
22
100
AcDbEntity
  8
TITLEBLOCK
100
AcDbMText
 10
17.46854638440925
 20
4.709901707696233
 30
0.0
 40
0.1011904379933159
 41
0.0
 46
0.0
 71
     1
 72
     1
  1
1
  7
SLDTEXTSTYLE0
 73
     1
 44
1.0
  0
MTEXT
  5
2E4
330
22
100
AcDbEntity
  8
TITLEBLOCK
100
AcDbMText
 10
15.24935107435931
 20
4.7218471693635
 30
0.0
 40
0.1011904379933159
 41
0.0
 46
0.0
 71
     1
 72
     1
  1
2
  7
SLDTEXTSTYLE0
 73
     1
 44
1.0
  0
MTEXT
  5
2E5
330
22
100
AcDbEntity
  8
TITLEBLOCK
100
AcDbMText
 10
13.11919635090817
 20
4.720962143343826
 30
0.0
 40
0.1011904379933159
 41
0.0
 46
0.0
 71
     1
 72
     1
  1
3
  7
SLDTEXTSTYLE0
 73
     1
 44
1.0
  0
MTEXT
  5
2E6
330
22
100
AcDbEntity
  8
TITLEBLOCK
100
AcDbMText
 10
11.05907193410223
 20
4.723233739284595
 30
0.0
 40
0.1011904379933159
 41
0.0
 46
0.0
 71
     1
 72
     1
  1
4
  7
SLDTEXTSTYLE0
 73
     1
 44
1.0
  0
MTEXT
  5
2E7
330
22
100
AcDbEntity
  8
TITLEBLOCK
100
AcDbMText
 10
8.916522940109758
 20
4.7198474192585
 30
0.0
 40
0.101190437993316
 41
0.0
 46
0.0
 71
     1
 72
     1
  1
5
  7
SLDTEXTSTYLE0
 73
     1
 44
1.0
  0
MTEXT
  5
2E8
330
22
100
AcDbEntity
  8
TITLEBLOCK
100
AcDbMText
 10
9.804213031568224
 20
4.674915408396487
 30
0.0
 40
0.1588677966970681
 41
0.0
 46
0.0
 71
     1
 72
     1
  1
6
  7
SLDTEXTSTYLE0
 73
     1
 44
1.0
  0
MTEXT
  5
2E9
330
22
100
AcDbEntity
  8
TITLEBLOCK
100
AcDbMText
 10
6.480446970979642
 20
4.674247056779393
 30
0.0
 40
0.1588677966970681
 41
0.0
 46
0.0
 71
     1
 72
     1
  1
7
  7
SLDTEXTSTYLE0
 73
     1
 44
1.0
  0
MTEXT
  5
2EA
330
22
100
AcDbEntity
  8
TITLEBLOCK
100
AcDbMText
 10
3.039324363324226
 20
4.673741623403487
 30
0.0
 40
0.158867796697068
 41
0.0
 46
0.0
 71
     1
 72
     1
  1
8
  7
SLDTEXTSTYLE0
 73
     1
 44
1.0
  0
MTEXT
  5
2EB
330
22
100
AcDbEntity
  8
TITLEBLOCK
100
AcDbMText
 10
2.46621085610434
 20
16.07574796700072
 30
0.0
 40
0.1011904379933169
 41
0.0
 46
0.0
 71
     1
 72
     1
  1
8
  7
SLDTEXTSTYLE0
 73
     1
 44
1.0
  0
MTEXT
  5
2EC
330
22
100
AcDbEntity
  8
TITLEBLOCK
100
AcDbMText
 10
4.670163591963046
 20
16.07268153613974
 30
0.0
 40
0.1011904379933169
 41
0.0
 46
0.0
 71
     1
 72
     1
  1
7
  7
SLDTEXTSTYLE0
 73
     1
 44
1.0
  0
MTEXT
  5
2ED
330
22
100
AcDbEntity
  8
TITLEBLOCK
100
AcDbMText
 10
6.772442874522653
 20
16.08141492749311
 30
0.0
 40
0.1011904379933169
 41
0.0
 46
0.0
 71
     1
 72
     1
  1
6
  7
SLDTEXTSTYLE0
 73
     1
 44
1.0
  0
MTEXT
  5
2EE
330
22
100
AcDbEntity
  8
TITLEBLOCK
100
AcDbMText
 10
8.909592475987893
 20
16.0819940685701
 30
0.0
 40
0.1011904379933169
 41
0.0
 46
0.0
 71
     1
 72
     1
  1
5
  7
SLDTEXTSTYLE0
 73
     1
 44
1.0
  0
MTEXT
  5
2EF
330
22
100
AcDbEntity
  8
TITLEBLOCK
100
AcDbMText
 10
11.05278333245928
 20
16.08023541304139
 30
0.0
 40
0.1011904379933169
 41
0.0
 46
0.0
 71
     1
 72
     1
  1
4
  7
SLDTEXTSTYLE0
 73
     1
 44
1.0
  0
MTEXT
  5
2F0
330
22
100
AcDbEntity
  8
TITLEBLOCK
100
AcDbMText
 10
13.17743646450549
 20
16.07361515027077
 30
0.0
 40
0.1011904379933169
 41
0.0
 46
0.0
 71
     1
 72
     1
  1
3
  7
SLDTEXTSTYLE0
 73
     1
 44
1.0
  0
MTEXT
  5
2F1
330
22
100
AcDbEntity
  8
TITLEBLOCK
100
AcDbMText
 10
15.30191419867003
 20
16.08082517026726
 30
0.0
 40
0.1011904379933169
 41
0.0
 46
0.0
 71
     1
 72
     1
  1
2
  7
SLDTEXTSTYLE0
 73
     1
 44
1.0
  0
MTEXT
  5
2F2
330
22
100
AcDbEntity
  8
TITLEBLOCK
100
AcDbMText
 10
17.48914094637689
 20
16.07420490749664
 30
0.0
 40
0.1011904379933169
 41
0.0
 46
0.0
 71
     1
 72
     1
  1
1
  7
SLDTEXTSTYLE0
 73
     1
 44
1.0
  0
MTEXT
  5
2F3
330
22
100
AcDbEntity
  8
TITLEBLOCK
100
AcDbMText
 10
13.75800074677477
 20
6.248274961337088
 30
0.0
 40
0.0701587036753655
 41
0.0
 46
0.0
 71
     1
 72
     1
  1
DRAWN
  7
SLDTEXTSTYLE0
 73
     1
 44
1.0
  0
MTEXT
  5
2F4
330
22
100
AcDbEntity
  8
TITLEBLOCK
100
AcDbMText
 10
13.76030082923251
 20
6.040648141570898
 30
0.0
 40
0.0701587036753658
 41
0.0
 46
0.0
 71
     1
 72
     1
  1
CHECKED
  7
SLDTEXTSTYLE0
 73
     1
 44
1.0
  0
MTEXT
  5
2F5
330
22
100
AcDbEntity
  8
TITLEBLOCK
100
AcDbMText
 10
13.75717794585375
 20
5.843642792791897
 30
0.0
 40
0.0701587036753658
 41
0.0
 46
0.0
 71
     1
 72
     1
  1
ENG APPR.
  7
SLDTEXTSTYLE0
 73
     1
 44
1.0
  0
MTEXT
  5
2F6
330
22
100
AcDbEntity
  8
TITLEBLOCK
100
AcDbMText
 10
13.76251898385669
 20
5.64156701416988
 30
0.0
 40
0.0701587036753657
 41
0.0
 46
0.0
 71
     1
 72
     1
  1
MFG APPR.
  7
SLDTEXTSTYLE0
 73
     1
 44
1.0
  0
MTEXT
  5
2F7
330
22
100
AcDbEntity
  8
TITLEBLOCK
100
AcDbMText
 10
13.76076576661285
 20
5.44088864768888
 30
0.0
 40
0.0701587036753657
 41
0.0
 46
0.0
 71
     1
 72
     1
  1
Q.A.
  7
SLDTEXTSTYLE0
 73
     1
 44
1.0
  0
MTEXT
  5
2F8
330
22
100
AcDbEntity
  8
TITLEBLOCK
100
AcDbMText
 10
13.76170865296649
 20
5.261801698815901
 30
0.0
 40
0.0701587036753657
 41
0.0
 46
0.0
 71
     1
 72
     1
  1
COMMENTS:
  7
SLDTEXTSTYLE0
 73
     1
 44
1.0
  0
MTEXT
  5
2F9
330
22
100
AcDbEntity
  8
TITLEBLOCK
100
AcDbMText
 10
15.16535371860243
 20
6.450385767972747
 30
0.0
 40
0.0701587036753658
 41
0.0
 46
0.0
 71
     1
 72
     1
  1
DATE
  7
SLDTEXTSTYLE0
 73
     1
 44
1.0
  0
MTEXT
  5
2FA
330
22
100
AcDbEntity
  8
TITLEBLOCK
100
AcDbMText
 10
14.63455070005352
 20
6.452259777674925
 30
0.0
 40
0.0701587036753658
 41
0.0
 46
0.0
 71
     1
 72
     1
  1
NAME
  7
SLDTEXTSTYLE0
 73
     1
 44
1.0
  0
MTEXT
  5
2FB
330
22
100
AcDbEntity
  8
TITLEBLOCK
100
AcDbMText
 10
15.58513952987073
 20
6.49454063483563
 30
0.0
 40
0.1079364671928703
 41
0.0
 46
0.0
 71
     1
 72
     1
  1
TITLE:
  7
SLDTEXTSTYLE0
 73
     1
 44
1.0
  0
MTEXT
  5
2FC
330
22
100
AcDbEntity
  8
TITLEBLOCK
100
AcDbMText
 10
15.62279615031457
 20
5.558173686995204
 30
0.0
 40
0.1079364671928703
 41
0.0
 46
0.0
 71
     1
 72
     1
  1
SIZE
  7
SLDTEXTSTYLE0
 73
     1
 44
1.0
  0
MTEXT
  5
2FD
330
22
100
AcDbEntity
  8
TITLEBLOCK
100
AcDbMText
 10
15.63131242504176
 20
5.403762727032955
 30
0.0
 40
0.2698411679821759
 41
0.0
 46
0.0
 71
     1
 72
     1
  1
B
  7
SLDTEXTSTYLE0
 73
     1
 44
1.0
  0
MTEXT
  5
2FE
330
22
100
AcDbEntity
  8
TITLEBLOCK
100
AcDbMText
 10
15.99679483002933
 20
5.556663851168594
 30
0.0
 40
0.1079364671928703
 41
0.0
 46
0.0
 71
     1
 72
     1
  1
DWG.  NO.
  7
SLDTEXTSTYLE0
 73
     1
 44
1.0
  0
MTEXT
  5
2FF
330
22
100
AcDbEntity
  8
TITLEBLOCK
100
AcDbMText
 10
18.07921418021442
 20
5.552447604119777
 30
0.0
 40
0.1079364671928703
 41
0.0
 46
0.0
 71
     1
 72
     1
  1
REV
  7
SLDTEXTSTYLE0
 73
     1
 44
1.0
  0
MTEXT
  5
300
330
22
100
AcDbEntity
  8
TITLEBLOCK
100
AcDbMText
 10
15.6299801668963
 20
4.980527331905563
 30
0.0
 40
0.1079364671928704
 41
0.0
 46
0.1079364671928704
 71
     1
 72
     1
  1
{SCALE: N/A}
  7
SLDTEXTSTYLE0
 73
     1
 44
1.0
1001
ACAD
1000
ACAD_MTEXT_DEFINED_HEIGHT_BEGIN
1070
    46
1040
0.1079364671928704
1000
ACAD_MTEXT_DEFINED_HEIGHT_END
  0
MTEXT
  5
301
330
22
100
AcDbEntity
  8
TITLEBLOCK
100
AcDbMText
 10
17.57123251480414
 20
4.980878303834999
 30
0.0
 40
0.1079364671928704
 41
0.0
 46
0.0
 71
     1
 72
     1
  1
SHEET 1 OF 1
  7
SLDTEXTSTYLE0
 73
     1
 44
1.0
  0
LINE
  5
302
330
22
100
AcDbEntity
  8
TITLEBLOCK
100
AcDbLine
 10
18.51330108481034
 20
13.10079649379145
 30
0.0
 11
18.64822166880151
 21
13.10079649379145
 31
0.0
  0
LINE
  5
303
330
22
100
AcDbEntity
  8
TITLEBLOCK
100
AcDbLine
 10
18.51330108481034
 20
10.33492452197414
 30
0.0
 11
18.64822166880151
 21
10.33492452197414
 31
0.0
  0
LINE
  5
304
330
22
100
AcDbEntity
  8
TITLEBLOCK
100
AcDbLine
 10
1.513307501933355
 20
7.573673305929702
 30
0.0
 11
1.37838691794218
 21
7.573673305929702
 31
0.0
  0
LINE
  5
305
330
22
100
AcDbEntity
  8
TITLEBLOCK
100
AcDbLine
 10
1.513307501933355
 20
10.33954527774701
 30
0.0
 11
1.440794240749256
 21
10.32841905716744
 31
0.0
  0
LINE
  5
306
330
22
100
AcDbEntity
  8
TITLEBLOCK
100
AcDbLine
 10
1.513307501933355
 20
10.33954527774701
 30
0.0
 11
1.440794240749256
 21
10.34930074653518
 31
0.0
  0
LINE
  5
307
330
22
100
AcDbEntity
  8
TITLEBLOCK
100
AcDbLine
 10
1.440794240749256
 20
10.36546044624363
 30
0.0
 11
1.440794240749256
 21
10.31517481500535
 31
0.0
  0
LINE
  5
308
330
22
100
AcDbEntity
  8
TITLEBLOCK
100
AcDbLine
 10
15.53563618182488
 20
5.511382999941162
 30
0.0
 11
13.70981339154469
 21
5.511382999941162
 31
0.0
  0
TEXT
  5
309
330
22
100
AcDbEntity
  8
TITLEBLOCK
100
AcDbText
 10
16.19739068740046
 20
7.033148596694531
 30
0.0
 40
0.09
  1
5502 Timberlea Blvd.
100
AcDbText
  0
TEXT
  5
30A
330
22
100
AcDbEntity
  8
TITLEBLOCK
100
AcDbText
 10
16.19739068740046
 20
6.891578596694529
 30
0.0
 40
0.09
  1
Mississauga, ON  Canada
100
AcDbText
  0
TEXT
  5
30B
330
22
100
AcDbEntity
  8
TITLEBLOCK
100
AcDbText
 10
17.96872437975469
 20
6.894278596694534
 30
0.0
 40
0.09
  1
L4W 2T7
100
AcDbText
  0
TEXT
  5
30C
330
22
100
AcDbEntity
  8
TITLEBLOCK
100
AcDbText
 10
16.1887076791046
 20
6.756270359225752
 30
0.0
 40
0.09
  1
Tel: (905) 366-3377
100
AcDbText
  0
TEXT
  5
30D
330
22
100
AcDbEntity
  8
TITLEBLOCK
100
AcDbText
 10
16.20247957280446
 20
6.634482988482574
 30
0.0
 40
0.09
  1
www.camdencontrols.com
100
AcDbText
  0
LINE
  5
30E
330
22
100
AcDbEntity
  8
TITLEBLOCK
100
AcDbLine
 10
13.70981339154469
 20
7.191262429049814
 30
0.0
 11
18.51330108481034
 21
7.191262429049814
 31
0.0
  0
LINE
  5
30F
330
22
100
AcDbEntity
  8
TITLEBLOCK
100
AcDbLine
 10
13.70981339154469
 20
7.191262429049814
 30
0.0
 11
13.70981339154469
 21
6.531759566023197
 31
0.0
  0
LINE
  5
310
330
22
100
AcDbEntity
  8
TITLEBLOCK
100
AcDbLine
 10
13.70981339154469
 20
6.531759566023197
 30
0.0
 11
18.51330108481034
 21
6.531759566023212
 31
0.0
  0
LINE
  5
350
330
22
100
AcDbEntity
  8
0
100
AcDbLine
 10
6.3229500358417
 20
4.793185816230576
 30
0.0
 11
6.3229500358417
 21
15.85667370349978
 31
0.0
  0
LINE
  5
351
330
22
100
AcDbEntity
  8
0
100
AcDbLine
 10
1.519462342576048
 20
15.51462375369113
 30
0.0
 11
6.3229500358417
 21
15.51462375369113
 31
0.0
  0
TEXT
  5
352
330
22
100
AcDbEntity
  8
0
100
AcDbText
 10
1.730870909334726
 20
15.6209934149577
 30
0.0
 40
0.1
  1
NOTES:  REF SPEC # CXWEC10K2
100
AcDbText
  0
MTEXT
  5
354
330
22
100
AcDbEntity
  8
0
100
AcDbMText
 10
1.665528735549742
 20
15.21077470991015
 30
0.0
 40
0.05
 41
4.538438880706963
 46
3.478666666666668
 71
     1
 72
     5
  3
{\H2x;CX-WEC10 EQUIPMENT PACKAGE:\P^I^I^I^I^I^I^I^I^I^I^I^I^I^I^I^I^I^ISPEC REF\P\P  1^I^ICM-AF540SO - 'PRESS FOR EMERGENCY ^I^I2.2A-2A.1\P^I^IASSISTANCE' SWITCH & 'ASSISTANCE\P^I^IREQUESTED' LED ANNUNCIATOR WITH \P^I^ISOUNDER\P  2^I^ICM-AF141SO - 'ASSISTANCE REQUIRED' ^I^I^I2.2A-2A
  3
.1\P^I^ISINGLE GANG DOME LIGHT WITH SOUNDER \P  3^I^ICM-SE21A - EMERGENCY ASSISTANCE SIGN^I2.2A-2A.1\P\PADDITIONAL PARTS REQUIRED \PBUT NOT INCLUDED WITH THE CX-WEC10:\P\P  4^I^ICX-PS13 - 12/24 VDC LINEAR POWER SUPPLY^I2.2B-2B.1\P  5^I^ICX-TRX-4024 - 40VA, 24 
  1
VAC TRANSFORMER^I2.2B-2B.1\P\PNOTE:\PWHEN USED WITH A CAMDEN CX-WC SERIES BARRIER WASHROOM KIT, THE CX-WEC10K2 CAN GET ITS POWER FROM THE BARRIER FREE WASHROOM KITS POWER SUPPLY.  }
 73
     1
 44
1.0
1001
ACAD
1000
ACAD_MTEXT_DEFINED_HEIGHT_BEGIN
1070
    46
1040
3.478666666666668
1000
ACAD_MTEXT_DEFINED_HEIGHT_END
  0
MTEXT
  5
363
330
22
100
AcDbEntity
  8
0
100
AcDbMText
 10
1.65546388475957
 20
9.368739576167954
 30
0.0
 40
0.1
 41
4.084730165072932
 46
1.6192
 71
     1
 72
     5
  3
{\fTahoma|b0|i0|c0|p0;CX-WEC10 OPERATION:\P\P1.^ITHE ' PRESS FOR EMERGENCY ASSISTANCE' MUSHROOM ^IPUSH BUTTON IS ACTIVATED BY THE ^IOCCUPANT. \P2.^ITHIS ENERGIZES THE LED ANNUNCIATOR AND SOUNDER ^IWITHIN THE WASHROOM, AND THE DOME ^ILIGHT WITH ^ISOUNDER OUT
  1
SIDE THE ^IWASHROOM. \P3.^IBOTH ANNUNCIATORS WILL BE ^IENERGIZED UNTIL THE ^ILATCHING MUSHROOM PUSH BUTTON SWITCH IS ^IPULLED ^IOUT. }
 73
     1
 44
1.0
1001
ACAD
1000
ACAD_MTEXT_DEFINED_HEIGHT_BEGIN
1070
    46
1040
1.6192
1000
ACAD_MTEXT_DEFINED_HEIGHT_END
  0
LINE
  5
365
330
22
100
AcDbEntity
  8
0
100
AcDbLine
 10
1.519462342576048
 20
9.704868129717852
 30
0.0
 11
6.3229500358417
 21
9.704868129717852
 31
0.0
  0
LINE
  5
366
330
22
100
AcDbEntity
  8
0
100
AcDbLine
 10
1.519462342576048
 20
10.08193239987014
 30
0.0
 11
6.3229500358417
 21
10.08193239987014
 31
0.0
  0
TEXT
  5
367
330
22
100
AcDbEntity
  8
0
100
AcDbText
 10
3.206256189208803
 20
9.843978086004228
 30
0.0
 40
0.1
  1
SYSTEM OPERATION
 72
     1
 11
3.923756189208802
 21
9.843978086004228
 31
0.0
100
AcDbText
  0
LWPOLYLINE
  5
38F
330
22
100
AcDbEntity
  8
0
100
AcDbPolyline
 90
        6
 70
     1
 43
0.0
 10
9.200729256885666
 20
12.74520709525532
 10
9.333691333468892
 20
12.74520709525532
 10
9.400172371760505
 20
12.86035563131632
 10
9.333691333468892
 20
12.97550416737731
 10
9.200729256885666
 20
12.97550416737731
 10
9.134248218594053
 20
12.86035563131632
  0
TEXT
  5
390
330
22
100
AcDbEntity
  8
0
100
AcDbText
 10
9.215900804219928
 20
12.79335789175815
 30
0.0
 40
0.12
  1
2
100
AcDbText
  0
LWPOLYLINE
  5
3E1
330
22
100
AcDbEntity
  8
0
100
AcDbPolyline
 90
        6
 70
     1
 43
0.0
 10
14.44213834779475
 20
11.77157073161895
 10
14.57510042437798
 20
11.77157073161895
 10
14.64158146266959
 20
11.88671926767995
 10
14.57510042437798
 20
12.00186780374094
 10
14.44213834779475
 20
12.00186780374094
 10
14.37565730950314
 20
11.88671926767995
  0
TEXT
  5
3E2
330
22
100
AcDbEntity
  8
0
100
AcDbText
 10
14.45730989512901
 20
11.81972152812178
 30
0.0
 40
0.12
  1
1
100
AcDbText
  0
LWPOLYLINE
  5
40A
330
22
100
AcDbEntity
  8
0
100
AcDbPolyline
 90
        6
 70
     1
 43
0.0
 10
13.52413834779475
 20
14.00861618616442
 10
13.65710042437797
 20
14.00861618616442
 10
13.72358146266959
 20
14.12376472222542
 10
13.65710042437797
 20
14.2389132582864
 10
13.52413834779475
 20
14.2389132582864
 10
13.45765730950313
 20
14.12376472222542
  0
TEXT
  5
40B
330
22
100
AcDbEntity
  8
0
100
AcDbText
 10
13.53930989512901
 20
14.05676698266724
 30
0.0
 40
0.12
  1
3
100
AcDbText
  0
TEXT
  5
439
330
22
100
AcDbEntity
  8
0
100
AcDbText
 10
16.22780307729075
 20
6.16297530190468
 30
0.0
 40
0.08
  1
EMERGENCY CALL SYSTEMS 
 72
     1
 11
17.04072307729075
 21
6.16297530190468
 31
0.0
100
AcDbText
  0
TEXT
  5
43A
330
22
100
AcDbEntity
  8
0
100
AcDbText
 10
16.61268307729071
 20
5.825916564652488
 30
0.0
 40
0.08
  1
( CX-WEC10K2 )
 72
     1
 11
17.03772307729071
 21
5.825916564652488
 31
0.0
100
AcDbText
  0
TEXT
  5
43B
330
22
100
AcDbEntity
  8
0
100
AcDbText
 10
16.49428522980941
 20
5.140684834957028
 30
0.0
 40
0.08
  1
CX-WEC10K2_R2.DWG
100
AcDbText
  0
TEXT
  5
43C
330
22
100
AcDbEntity
  8
0
100
AcDbText
 10
18.17641946986862
 20
5.160146216642303
 30
0.0
 40
0.08
  1
2
100
AcDbText
  0
TEXT
  5
43D
330
22
100
AcDbEntity
  8
0
100
AcDbText
 10
15.08205978190915
 20
6.172138064276865
 30
0.0
 40
0.08
  1
MAR-17
100
AcDbText
  0
TEXT
  5
43E
330
22
100
AcDbEntity
  8
0
100
AcDbText
 10
14.55660247640651
 20
6.170961119626355
 30
0.0
 40
0.08
  1
J.LEWIS
100
AcDbText
  0
TEXT
  5
476
330
22
100
AcDbEntity
  8
0
100
AcDbText
 10
16.20829338549737
 20
6.004132107684327
 30
0.0
 40
0.08
  1
 FOR UNIVERSAL RESTROOMS
 72
     1
 11
17.04909338549737
 21
6.004132107684327
 31
0.0
100
AcDbText
  0
LINE
  5
477
330
22
100
AcDbEntity
  8
0
 62
     0
 48
0.2
100
AcDbLine
 10
13.98179230579069
 20
11.69295244687923
 30
0.0
 11
13.98179230579069
 21
10.73190714031243
 31
0.0
  0
ARC
  5
478
330
22
100
AcDbEntity
  8
0
 62
     0
 48
0.2
100
AcDbCircle
 10
14.01179230579055
 20
10.7319071403123
 30
0.0
 40
0.0299999999998732
100
AcDbArc
 50
179.9999999997557
 51
269.9999999997829
  0
LINE
  5
479
330
22
100
AcDbEntity
  8
0
 62
     0
 48
0.2
100
AcDbLine
 10
14.01179230579044
 20
10.70190714031243
 30
0.0
 11
15.13703070862198
 21
10.70190714031243
 31
0.0
  0
ARC
  5
47A
330
22
100
AcDbEntity
  8
0
 62
     0
 48
0.2
100
AcDbCircle
 10
15.13703070862198
 20
10.73190714031242
 30
0.0
 40
0.0299999999999869
100
AcDbArc
 50
270.0
 51
0.0000000000271407
  0
LINE
  5
47B
330
22
100
AcDbEntity
  8
0
 62
     0
 48
0.2
100
AcDbLine
 10
15.16703070862195
 20
10.73190714031243
 30
0.0
 11
15.16703070862195
 21
11.69295244687923
 31
0.0
  0
ARC
  5
47C
330
22
100
AcDbEntity
  8
0
 62
     0
 48
0.2
100
AcDbCircle
 10
15.13703070862198
 20
11.69295244687925
 30
0.0
 40
0.0299999999999869
100
AcDbArc
 50
359.9999999999729
 51
90.0
  0
LINE
  5
47D
330
22
100
AcDbEntity
  8
0
 62
     0
 48
0.2
100
AcDbLine
 10
15.13703070862198
 20
11.72295244687923
 30
0.0
 11
14.01179230579044
 21
11.72295244687923
 31
0.0
  0
ARC
  5
47E
330
22
100
AcDbEntity
  8
0
 62
     0
 48
0.2
100
AcDbCircle
 10
14.01179230579055
 20
11.69295244687936
 30
0.0
 40
0.0299999999998732
100
AcDbArc
 50
90.00000000021713
 51
180.0000000002443
  0
LINE
  5
681
330
22
100
AcDbEntity
  8
0
 62
     0
 48
0.2
100
AcDbLine
 10
11.7058869797487
 20
14.71598256243385
 30
0.0
 11
11.45232767271716
 21
14.69796299279372
 31
0.0
  0
ARC
  5
682
330
22
100
AcDbEntity
  8
0
 62
     0
 48
0.2
100
AcDbCircle
 10
11.70600310039003
 20
14.71434859059684
 30
0.0
 40
0.0016380927835052
100
AcDbArc
 50
68.40123153642189
 51
94.06497574693995
  0
LINE
  5
683
330
22
100
AcDbEntity
  8
0
 62
     0
 48
0.2
100
AcDbLine
 10
11.76138240149032
 20
14.6912422382359
 30
0.0
 11
11.48775740833287
 21
14.66976884043343
 31
0.0
  0
LINE
  5
684
330
22
100
AcDbEntity
  8
0
 62
     0
 48
0.2
100
AcDbLine
 10
11.47630607703354
 20
14.58316143327296
 30
0.0
 11
11.47630607703354
 21
14.26276576425505
 31
0.0
  0
LINE
  5
685
330
22
100
AcDbEntity
  8
0
 62
     0
 48
0.2
100
AcDbLine
 10
11.47141095011818
 20
14.58316143327296
 30
0.0
 11
11.47141095011818
 21
14.26276576425505
 31
0.0
  0
ARC
  5
686
330
22
100
AcDbEntity
  8
0
 62
     0
 48
0.2
100
AcDbCircle
 10
11.4868596739467
 20
14.26276576425502
 30
0.0
 40
0.0105535969132228
100
AcDbArc
 50
180.0
 51
233.5469407784148
  0
ARC
  5
687
330
22
100
AcDbEntity
  8
0
 62
     0
 48
0.2
100
AcDbCircle
 10
11.4868596739467
 20
14.26276576425502
 30
0.0
 40
0.0154487238285599
100
AcDbArc
 50
180.0
 51
233.5469407785331
  0
LINE
  5
688
330
22
100
AcDbEntity
  8
0
 62
     0
 48
0.2
100
AcDbLine
 10
11.85688979456006
 20
14.62739576580351
 30
0.0
 11
11.85074185854273
 21
14.43633139456351
 31
0.0
  0
LINE
  5
689
330
22
100
AcDbEntity
  8
0
 62
     0
 48
0.2
100
AcDbLine
 10
11.85011725916434
 20
14.41692021540126
 30
0.0
 11
11.84974201597277
 21
14.40525847977533
 31
0.0
  0
LINE
  5
68A
330
22
100
AcDbEntity
  8
0
 62
     0
 48
0.2
100
AcDbLine
 10
11.84911035542314
 20
14.38562785489852
 30
0.0
 11
11.8468449840824
 21
14.31522508075739
 31
0.0
  0
ARC
  5
68B
330
22
100
AcDbEntity
  8
0
 62
     0
 48
0.2
100
AcDbCircle
 10
11.85739312174928
 20
14.31488567014378
 30
0.0
 40
0.0105535969132228
100
AcDbArc
 50
178.1570122744168
 51
242.4259441668486
  0
LINE
  5
68C
330
22
100
AcDbEntity
  8
0
 62
     0
 48
0.2
100
AcDbLine
 10
11.49392611723624
 20
14.26021829541683
 30
0.0
 11
11.83397086372258
 21
14.3112355298954
 31
0.0
  0
LINE
  5
68D
330
22
100
AcDbEntity
  8
0
 62
     0
 48
0.2
100
AcDbLine
 10
11.48058910647978
 20
14.25427704282896
 30
0.0
 11
11.49559431960449
 21
14.24319278213409
 31
0.0
  0
LINE
  5
68E
330
22
100
AcDbEntity
  8
0
 62
     0
 48
0.2
100
AcDbLine
 10
11.5099441826959
 20
14.23259262456753
 30
0.0
 11
11.53953192318386
 21
14.21073633860746
 31
0.0
  0
ARC
  5
68F
330
22
100
AcDbEntity
  8
0
 62
     0
 48
0.2
100
AcDbCircle
 10
11.55121147251725
 20
14.22654741809849
 30
0.0
 40
0.0196571134020619
100
AcDbArc
 50
233.5469407783241
 51
279.7299488540611
  0
LINE
  5
690
330
22
100
AcDbEntity
  8
0
 62
     0
 48
0.2
100
AcDbLine
 10
11.55453361490345
 20
14.2071730670831
 30
0.0
 11
11.91132195456134
 21
14.26835197651651
 31
0.0
  0
LINE
  5
691
330
22
100
AcDbEntity
  8
0
 62
     0
 48
0.2
100
AcDbLine
 10
11.91226006809802
 20
14.27432759537038
 30
0.0
 11
11.88036937036918
 21
14.29098126645593
 31
0.0
  0
LINE
  5
692
330
22
100
AcDbEntity
  8
0
 62
     0
 48
0.2
100
AcDbLine
 10
11.86145002603178
 20
14.30086115495608
 30
0.0
 11
11.85250791762167
 21
14.30553082175172
 31
0.0
  0
ARC
  5
693
330
22
100
AcDbEntity
  8
0
 62
     0
 48
0.2
100
AcDbCircle
 10
11.91078248254337
 20
14.27149811506875
 30
0.0
 40
0.0031920554268523
100
AcDbArc
 50
279.7299488559036
 51
62.42594416580664
  0
LINE
  5
694
330
22
100
AcDbEntity
  8
0
 62
     0
 48
0.2
100
AcDbLine
 10
11.49559431960449
 20
14.24319278213409
 30
0.0
 11
11.5371070852342
 21
14.24973627346999
 31
0.0
  0
ARC
  5
695
330
22
100
AcDbEntity
  8
0
 62
     0
 48
0.2
100
AcDbCircle
 10
11.54093293863048
 20
14.22546455868823
 30
0.0
 40
0.0245713917525773
100
AcDbArc
 50
62.42594416684668
 51
98.95760322948139
  0
LINE
  5
696
330
22
100
AcDbEntity
  8
0
 62
     0
 48
0.2
100
AcDbLine
 10
11.83236631033583
 20
14.29627680508717
 30
0.0
 11
11.86145002603178
 21
14.30086115495608
 31
0.0
  0
ARC
  5
697
330
22
100
AcDbEntity
  8
0
 62
     0
 48
0.2
100
AcDbCircle
 10
11.83270139395074
 20
14.29415099076958
 30
0.0
 40
0.0021520612309548
100
AcDbArc
 50
98.95760322552452
 51
242.4259441694663
  0
LINE
  5
698
330
22
100
AcDbEntity
  8
0
 62
     0
 48
0.2
100
AcDbLine
 10
11.5099441826959
 20
14.23259262456753
 30
0.0
 11
11.55759672520503
 21
14.24010390439466
 31
0.0
  0
ARC
  5
699
330
22
100
AcDbEntity
  8
0
 62
     0
 48
0.2
100
AcDbCircle
 10
11.55726164159012
 20
14.24222971871224
 30
0.0
 40
0.0021520612309548
100
AcDbArc
 50
278.9576032255245
 51
62.42594416946633
  0
LINE
  5
69A
330
22
100
AcDbEntity
  8
0
 62
     0
 48
0.2
100
AcDbLine
 10
11.85285595030678
 20
14.28664443601184
 30
0.0
 11
11.88036937036918
 21
14.29098126645593
 31
0.0
  0
LINE
  5
69B
330
22
100
AcDbEntity
  8
0
 62
     0
 48
0.2
100
AcDbLine
 10
11.83765612977868
 20
14.28913574298409
 30
0.0
 11
11.83170521620241
 21
14.29224337512807
 31
0.0
  0
ARC
  5
69C
330
22
100
AcDbEntity
  8
0
 62
     0
 48
0.2
100
AcDbCircle
 10
11.84903009691016
 20
14.31091615079357
 30
0.0
 40
0.0245713917525773
100
AcDbArc
 50
242.425944167143
 51
278.9576032297484
  0
LINE
  5
69D
330
22
100
AcDbEntity
  8
0
 62
     0
 48
0.2
100
AcDbLine
 10
11.55825781933822
 20
14.24413733435374
 30
0.0
 11
11.55230690576207
 21
14.24724496649775
 31
0.0
  0
LINE
  5
69E
330
22
100
AcDbEntity
  8
0
 62
     0
 48
0.2
100
AcDbLine
 10
11.50038397439221
 20
14.60928409423526
 30
0.0
 11
11.84626697685928
 21
14.63750785650818
 31
0.0
  0
LINE
  5
69F
330
22
100
AcDbEntity
  8
0
 62
     0
 48
0.2
100
AcDbLine
 10
11.49998585936066
 20
14.61416300517307
 30
0.0
 11
11.83792485190008
 21
14.64173854291316
 31
0.0
  0
ARC
  5
6A0
330
22
100
AcDbEntity
  8
0
 62
     0
 48
0.2
100
AcDbCircle
 10
11.84706632205086
 20
14.62771185864733
 30
0.0
 40
0.0098285567010309
100
AcDbArc
 50
358.1570122744673
 51
94.6649520275962
  0
ARC
  5
6A1
330
22
100
AcDbEntity
  8
0
 62
     0
 48
0.2
100
AcDbCircle
 10
11.50251556156979
 20
14.58316143327296
 30
0.0
 40
0.0262094845360825
100
AcDbArc
 50
94.66495202809581
 51
180.0
  0
ARC
  5
6A2
330
22
100
AcDbEntity
  8
0
 62
     0
 48
0.2
100
AcDbCircle
 10
11.50251556156979
 20
14.58316143327296
 30
0.0
 40
0.0311046114514196
100
AcDbArc
 50
94.66495202816581
 51
180.0
  0
LINE
  5
6A3
330
22
100
AcDbEntity
  8
0
 62
     0
 48
0.2
100
AcDbLine
 10
11.47768059824
 20
14.25033967729649
 30
0.0
 11
11.4949938737094
 21
14.23755046482803
 31
0.0
  0
LINE
  5
6A4
330
22
100
AcDbEntity
  8
0
 62
     0
 48
0.2
100
AcDbLine
 10
11.5093437368007
 20
14.22695030726148
 30
0.0
 11
11.53893147728888
 21
14.20509402130141
 31
0.0
  0
ARC
  5
6A5
330
22
100
AcDbEntity
  8
0
 62
     0
 48
0.2
100
AcDbCircle
 10
11.55061102662216
 20
14.22090510079244
 30
0.0
 40
0.0196571134020619
100
AcDbArc
 50
233.5469407787383
 51
279.7299488543948
  0
LINE
  5
6A6
330
22
100
AcDbEntity
  8
0
 62
     0
 48
0.2
100
AcDbLine
 10
11.55393316900847
 20
14.20153074977705
 30
0.0
 11
11.91072150866637
 21
14.26270965921046
 31
0.0
  0
ARC
  5
6A7
330
22
100
AcDbEntity
  8
0
 62
     0
 48
0.2
100
AcDbCircle
 10
11.91018203664839
 20
14.26585579776271
 30
0.0
 40
0.0031920554268523
100
AcDbArc
 50
279.7299488559036
 51
353.9255416917753
  0
LINE
  5
6A8
330
22
100
AcDbEntity
  8
0
 62
     0
 48
0.2
100
AcDbLine
 10
11.4949938737094
 20
14.23755046482803
 30
0.0
 11
11.536506639339
 21
14.24409395616394
 31
0.0
  0
ARC
  5
6A9
330
22
100
AcDbEntity
  8
0
 62
     0
 48
0.2
100
AcDbCircle
 10
11.5403324927355
 20
14.21982224138218
 30
0.0
 40
0.0245713917525773
100
AcDbArc
 50
62.42594416714302
 51
98.95760322948139
  0
LINE
  5
6AA
330
22
100
AcDbEntity
  8
0
 62
     0
 48
0.2
100
AcDbLine
 10
11.8340858563156
 20
14.29100017882821
 30
0.0
 11
11.8608495801368
 21
14.29521883765005
 31
0.0
  0
LINE
  5
6AB
330
22
100
AcDbEntity
  8
0
 62
     0
 48
0.2
100
AcDbLine
 10
11.55527673333029
 20
14.23973821334754
 30
0.0
 11
11.55170645986721
 21
14.24160264919169
 31
0.0
  0
LINE
  5
6AC
330
22
100
AcDbEntity
  8
0
 62
     0
 48
0.2
100
AcDbLine
 10
11.5099441826959
 20
14.23259262456753
 30
0.0
 11
11.5093437368007
 21
14.22695030726148
 31
0.0
  0
LINE
  5
6AD
330
22
100
AcDbEntity
  8
0
 62
     0
 48
0.2
100
AcDbLine
 10
11.49559431960449
 20
14.24319278213409
 30
0.0
 11
11.4949938737094
 21
14.23755046482803
 31
0.0
  0
LINE
  5
6AE
330
22
100
AcDbEntity
  8
0
 62
     0
 48
0.2
100
AcDbLine
 10
11.91395661526985
 20
14.27116032921548
 30
0.0
 11
11.91335616937499
 21
14.26551801190942
 31
0.0
  0
ARC
  5
6AF
330
22
100
AcDbEntity
  8
0
 62
     0
 48
0.2
100
AcDbCircle
 10
11.83872419709166
 20
14.63194254505227
 30
0.0
 40
0.0098285567010309
100
AcDbArc
 50
63.10827680179549
 51
94.66495202826349
  0
LINE
  5
6B0
330
22
100
AcDbEntity
  8
0
 62
     0
 48
0.2
100
AcDbLine
 10
11.84316971105807
 20
14.64070826991686
 30
0.0
 11
11.85151183601715
 21
14.63647758351189
 31
0.0
  0
LINE
  5
6B1
330
22
100
AcDbEntity
  8
0
 62
     0
 48
0.2
100
AcDbLine
 10
11.8608495801368
 20
14.29521883765005
 30
0.0
 11
11.86145002603178
 21
14.30086115495608
 31
0.0
  0
LINE
  5
6B2
330
22
100
AcDbEntity
  8
0
 62
     0
 48
0.2
100
AcDbLine
 10
11.39497544801714
 20
14.70075427221724
 30
0.0
 11
11.42805538404787
 21
14.70306909011664
 31
0.0
  0
ARC
  5
6B3
330
22
100
AcDbEntity
  8
0
 62
     0
 48
0.2
100
AcDbCircle
 10
11.43034235132984
 20
14.67038715370524
 30
0.0
 40
0.0327618556701031
100
AcDbArc
 50
57.07959789899678
 51
94.00283263213394
  0
LINE
  5
6B4
330
22
100
AcDbEntity
  8
0
 62
     0
 48
0.2
100
AcDbLine
 10
11.48376672836582
 20
14.6079803395147
 30
0.0
 11
11.48487555002396
 21
14.65552197136026
 31
0.0
  0
LINE
  5
6B5
330
22
100
AcDbEntity
  8
0
 62
     0
 48
0.2
100
AcDbLine
 10
11.44814754811216
 20
14.69788832012573
 30
0.0
 11
11.46992779824177
 21
14.68378704043472
 31
0.0
  0
ARC
  5
6B6
330
22
100
AcDbEntity
  8
0
 62
     0
 48
0.2
100
AcDbCircle
 10
11.45212260145922
 20
14.65628587401422
 30
0.0
 40
0.0327618556701031
100
AcDbArc
 50
358.6639229046637
 51
57.07959789923121
  0
LINE
  5
6B7
330
22
100
AcDbEntity
  8
0
 62
     0
 48
0.2
100
AcDbLine
 10
11.44350905524664
 20
14.6472343299824
 30
0.0
 11
11.44134052630898
 21
14.32691145933174
 31
0.0
  0
ARC
  5
6B8
330
22
100
AcDbEntity
  8
0
 62
     0
 48
0.2
100
AcDbCircle
 10
11.43478830531899
 20
14.326955816704
 30
0.0
 40
0.0065523711340199
100
AcDbArc
 50
237.7818864237118
 51
359.612123675089
  0
LINE
  5
6B9
330
22
100
AcDbEntity
  8
0
 62
     0
 48
0.2
100
AcDbLine
 10
11.43426372122383
 20
14.31954150280291
 30
0.0
 11
11.38579821428755
 21
14.3500832637439
 31
0.0
  0
ARC
  5
6BA
330
22
100
AcDbEntity
  8
0
 62
     0
 48
0.2
100
AcDbCircle
 10
11.43775707704822
 20
14.32508497036059
 30
0.0
 40
0.0065523711340206
100
AcDbArc
 50
237.7818864225395
 51
286.1466042618546
  0
ARC
  5
6BB
330
22
100
AcDbEntity
  8
0
 62
     0
 48
0.2
100
AcDbCircle
 10
11.39977163758454
 20
14.37225713397463
 30
0.0
 40
0.0262094845360826
100
AcDbArc
 50
179.7346176762665
 51
237.7818864239883
  0
LINE
  5
6BC
330
22
100
AcDbEntity
  8
0
 62
     0
 48
0.2
100
AcDbLine
 10
11.37356243419094
 20
14.37237853050854
 30
0.0
 11
11.37495005624089
 21
14.67196260734723
 31
0.0
  0
ARC
  5
6BD
330
22
100
AcDbEntity
  8
0
 62
     0
 48
0.2
100
AcDbCircle
 10
11.37658813145288
 20
14.67195502006383
 30
0.0
 40
0.001638092783504
100
AcDbArc
 50
63.33120516019135
 51
179.7346176764529
  0
LINE
  5
6BE
330
22
100
AcDbEntity
  8
0
 62
     0
 48
0.2
100
AcDbLine
 10
11.37732336052363
 20
14.67341884593498
 30
0.0
 11
11.42892533973009
 21
14.64750095777259
 31
0.0
  0
LINE
  5
6BF
330
22
100
AcDbEntity
  8
0
 62
     0
 48
0.2
100
AcDbLine
 10
11.42892533973009
 20
14.64750095777259
 30
0.0
 11
11.43039893032812
 21
14.6613481100334
 31
0.0
  0
LINE
  5
6C0
330
22
100
AcDbEntity
  8
0
 62
     0
 48
0.2
100
AcDbLine
 10
11.43039893032812
 20
14.6613481100334
 30
0.0
 11
11.37880712140714
 21
14.68726089001341
 31
0.0
  0
LINE
  5
6C1
330
22
100
AcDbEntity
  8
0
 62
     0
 48
0.2
100
AcDbLine
 10
11.37880712140714
 20
14.68726089001341
 30
0.0
 11
11.37733353080898
 21
14.67341373775257
 31
0.0
  0
LWPOLYLINE
  5
6C2
330
22
100
AcDbEntity
  8
0
 62
     0
 48
0.2
100
AcDbPolyline
 90
        3
 70
     0
 43
0.0
 10
11.43686061090102
 20
14.65005431110487
 10
11.43833420149883
 20
14.66390146336568
 10
11.38674239257773
 20
14.68981424334567
  0
LINE
  5
6C3
330
22
100
AcDbEntity
  8
0
 62
     0
 48
0.2
100
AcDbLine
 10
11.4295858983869
 20
14.65370814741603
 30
0.0
 11
11.42892533973009
 21
14.64750095777259
 31
0.0
  0
LINE
  5
6C4
330
22
100
AcDbEntity
  8
0
 62
     0
 48
0.2
100
AcDbLine
 10
11.42892533973009
 20
14.64750095777259
 30
0.0
 11
11.43686061090102
 21
14.65005431110487
 31
0.0
  0
LINE
  5
6C5
330
22
100
AcDbEntity
  8
0
 62
     0
 48
0.2
100
AcDbLine
 10
11.43039893032812
 20
14.6613481100334
 30
0.0
 11
11.43833420149883
 21
14.66390146336568
 31
0.0
  0
LINE
  5
6C6
330
22
100
AcDbEntity
  8
0
 62
     0
 48
0.2
100
AcDbLine
 10
11.37880712140714
 20
14.68726089001341
 30
0.0
 11
11.38674239257773
 21
14.68981424334567
 31
0.0
  0
LWPOLYLINE
  5
6C7
330
22
100
AcDbEntity
  8
0
 62
     0
 48
0.2
100
AcDbPolyline
 90
        5
 70
     0
 43
0.0
 10
11.43356182673051
 20
14.64899285253934
 10
11.4395733927106
 20
14.64596794136946
 10
11.44217935797747
 20
14.67045588115985
 10
11.38692782738008
 20
14.69825745110235
 10
11.38600403213502
 20
14.68957665914006
  0
LWPOLYLINE
  5
6C8
330
22
100
AcDbEntity
  8
0
 62
     0
 48
0.2
100
AcDbPolyline
 90
        3
 70
     0
 43
0.0
 10
11.44750866388142
 20
14.64852129470174
 10
11.45011462914829
 20
14.67300923449214
 10
11.39486309855101
 20
14.70081080443465
  0
LINE
  5
6C9
330
22
100
AcDbEntity
  8
0
 62
     0
 48
0.2
100
AcDbLine
 10
11.38692782738008
 20
14.69825745110235
 30
0.0
 11
11.39486309855101
 21
14.70081080443465
 31
0.0
  0
LINE
  5
6CA
330
22
100
AcDbEntity
  8
0
 62
     0
 48
0.2
100
AcDbLine
 10
11.44217935797747
 20
14.67045588115985
 30
0.0
 11
11.45011462914829
 21
14.67300923449214
 31
0.0
  0
LINE
  5
6CB
330
22
100
AcDbEntity
  8
0
 62
     0
 48
0.2
100
AcDbLine
 10
11.4395733927106
 20
14.64596794136946
 30
0.0
 11
11.44750866388142
 21
14.64852129470174
 31
0.0
  0
LINE
  5
6CC
330
22
100
AcDbEntity
  8
0
 62
     0
 48
0.2
100
AcDbLine
 10
11.77241473498952
 20
14.63639297243709
 30
0.0
 11
11.77639394395044
 21
14.68490155142622
 31
0.0
  0
LINE
  5
6CD
330
22
100
AcDbEntity
  8
0
 62
     0
 48
0.2
100
AcDbLine
 10
11.83792485190008
 20
14.64173854291316
 30
0.0
 11
11.80871358512115
 21
14.63935492809722
 31
0.0
  0
LINE
  5
6CE
330
22
100
AcDbEntity
  8
0
 62
     0
 48
0.2
100
AcDbLine
 10
11.80871358512115
 20
14.63935492809722
 30
0.0
 11
11.81215985073948
 21
14.67410325543801
 31
0.0
  0
LINE
  5
6CF
330
22
100
AcDbEntity
  8
0
 62
     0
 48
0.2
100
AcDbLine
 10
11.71217226608792
 20
14.72228639796899
 30
0.0
 11
11.7659664420363
 21
14.70152286066413
 31
0.0
  0
ARC
  5
6D0
330
22
100
AcDbEntity
  8
0
 62
     0
 48
0.2
100
AcDbCircle
 10
11.76006785388904
 20
14.68624079749826
 30
0.0
 40
0.0163809278350515
100
AcDbArc
 50
355.3104678352005
 51
68.89435223887052
  0
LINE
  5
6D1
330
22
100
AcDbEntity
  8
0
 62
     0
 48
0.2
100
AcDbLine
 10
11.75137069633308
 20
14.72276278821198
 30
0.0
 11
11.79097051648148
 21
14.70804645245416
 31
0.0
  0
ARC
  5
6D2
330
22
100
AcDbEntity
  8
0
 62
     0
 48
0.2
100
AcDbCircle
 10
11.77955794301465
 20
14.67733664369835
 30
0.0
 40
0.0327618556701031
100
AcDbArc
 50
354.3360479859292
 51
69.61360845806377
  0
LINE
  5
6D3
330
22
100
AcDbEntity
  8
0
 62
     0
 48
0.2
100
AcDbLine
 10
11.70326951442541
 20
14.71651792415128
 30
0.0
 11
11.7032314084704
 21
14.71579384030746
 31
0.0
  0
ARC
  5
6D4
330
22
100
AcDbEntity
  8
0
 62
     0
 48
0.2
100
AcDbCircle
 10
11.70981283082904
 20
14.71617357270266
 30
0.0
 40
0.0065523711340206
100
AcDbArc
 50
68.89435223906496
 51
176.9875061180165
  0
LINE
  5
6D5
330
22
100
AcDbEntity
  8
0
 62
     0
 48
0.2
100
AcDbLine
 10
11.70935644373424
 20
14.72271003032874
 30
0.0
 11
11.73767115558428
 21
14.72473491586761
 31
0.0
  0
ARC
  5
6D6
330
22
100
AcDbEntity
  8
0
 62
     0
 48
0.2
100
AcDbCircle
 10
11.73995812286626
 20
14.69205297945618
 30
0.0
 40
0.0327618556701031
100
AcDbArc
 50
69.61360845785143
 51
94.00283263213394
  0
LINE
  5
6D7
330
22
100
AcDbEntity
  8
0
 62
     0
 48
0.2
100
AcDbLine
 10
11.50614690131385
 20
14.62519520014031
 30
0.0
 11
11.76682405868837
 21
14.64766999473413
 31
0.0
  0
ARC
  5
6D8
330
22
100
AcDbEntity
  8
0
 62
     0
 48
0.2
100
AcDbCircle
 10
11.50755399523428
 20
14.60887481768658
 30
0.0
 40
0.0163809278350515
100
AcDbArc
 50
94.92768284170536
 51
168.0727056524027
  0
LINE
  5
6D9
330
22
100
AcDbEntity
  8
0
 62
     0
 48
0.2
100
AcDbLine
 10
11.7659950333906
 20
14.63586913018266
 30
0.0
 11
11.76985615596402
 21
14.69083076358936
 31
0.0
  0
LINE
  5
6DA
330
22
100
AcDbEntity
  8
0
 62
     0
 48
0.2
100
AcDbLine
 10
11.76985615596402
 20
14.69083076358936
 30
0.0
 11
11.70660608982587
 21
14.71587166370988
 31
0.0
  0
LINE
  5
6DB
330
22
100
AcDbEntity
  8
0
 62
     0
 48
0.2
100
AcDbLine
 10
11.4395792656253
 20
14.31879106884669
 30
0.0
 11
11.47141095011818
 21
14.32800686794181
 31
0.0
  0
LINE
  5
6DC
330
22
100
AcDbEntity
  8
0
 62
     0
 48
0.2
100
AcDbLine
 10
11.439781763013
 20
14.32271330002909
 30
0.0
 11
11.47171530545086
 21
14.36029919665576
 31
0.0
  0
ELLIPSE
  5
6DD
330
22
100
AcDbEntity
  8
0
 62
     0
 48
0.2
100
AcDbEllipse
 10
11.70604642757212
 20
14.50001065762646
 30
0.0
 11
0.00407764839120662
 21
0.03595533825690079
 31
0.0
210
0.0
220
0.0
230
1.0
 40
0.8392793403099246
 41
4.957769298783606
 42
9.98103453501157
  0
ELLIPSE
  5
6DE
330
22
100
AcDbEntity
  8
0
 62
     0
 48
0.2
100
AcDbEllipse
 10
11.70009030128824
 20
14.50103280337909
 30
0.0
 11
0.007224178465859691
 21
0.06788472952938795
 31
0.0
210
0.0
220
0.0
230
1.0
 40
0.9154492466058469
 41
4.447941407665366
 42
10.12548740726957
  0
ARC
  5
6DF
330
22
100
AcDbEntity
  8
0
 62
     0
 48
0.2
100
AcDbCircle
 10
11.68498255777149
 20
14.52897030905059
 30
0.0
 40
0.0757910034588656
100
AcDbArc
 50
106.0644648145098
 51
144.6835463547198
  0
LINE
  5
6E0
330
22
100
AcDbEntity
  8
0
 62
     0
 48
0.2
100
AcDbLine
 10
11.62313925043668
 20
14.57278447962545
 30
0.0
 11
11.61409897525937
 21
14.57738198882416
 31
0.0
  0
LINE
  5
6E1
330
22
100
AcDbEntity
  8
0
 62
     0
 48
0.2
100
AcDbLine
 10
11.59825172745957
 20
14.53343266744628
 30
0.0
 11
11.58840089696218
 21
14.53686874491765
 31
0.0
  0
LINE
  5
6E2
330
22
100
AcDbEntity
  8
0
 62
     0
 48
0.2
100
AcDbLine
 10
11.59743719229846
 20
14.47978917206579
 30
0.0
 11
11.58798427162037
 21
14.47241003678246
 31
0.0
  0
ARC
  5
6E3
330
22
100
AcDbEntity
  8
0
 62
     0
 48
0.2
100
AcDbCircle
 10
11.61364364475139
 20
14.42470888383245
 30
0.0
 40
0.0182782319116763
100
AcDbArc
 50
56.22036537558041
 51
114.3252973096669
  0
ARC
  5
6E4
330
22
100
AcDbEntity
  8
0
 62
     0
 48
0.2
100
AcDbCircle
 10
11.65220197252563
 20
14.41042790680618
 30
0.0
 40
0.0096352135293314
100
AcDbArc
 50
352.8951393606772
 51
89.49516869313196
  0
ARC
  5
6E5
330
22
100
AcDbEntity
  8
0
 62
     0
 48
0.2
100
AcDbCircle
 10
11.67417502864851
 20
14.50545189885887
 30
0.0
 40
0.0809152091646338
100
AcDbArc
 50
159.7691433264215
 51
198.4910058133549
  0
ARC
  5
6E6
330
22
100
AcDbEntity
  8
0
 62
     0
 48
0.2
100
AcDbCircle
 10
11.66098268838334
 20
14.46290925855885
 30
0.0
 40
0.0437200288165884
100
AcDbArc
 50
211.7526920442958
 51
258.5274820754958
  0
LINE
  5
6E7
330
22
100
AcDbEntity
  8
0
 62
     0
 48
0.2
100
AcDbLine
 10
11.66400976838122
 20
14.60180174670275
 30
0.0
 11
11.66502016570428
 21
14.6131576332826
 31
0.0
  0
LINE
  5
6E8
330
22
100
AcDbEntity
  8
0
 62
     0
 48
0.2
100
AcDbLine
 10
11.70196832845943
 20
14.60653997709743
 30
0.0
 11
11.70234083864432
 21
14.61509457017118
 31
0.0
  0
LINE
  5
6E9
330
22
100
AcDbEntity
  8
0
 62
     0
 48
0.2
100
AcDbLine
 10
11.74708094382288
 20
14.5752082200254
 30
0.0
 11
11.75714911457169
 21
14.57918206102093
 31
0.0
  0
LINE
  5
6EA
330
22
100
AcDbEntity
  8
0
 62
     0
 48
0.2
100
AcDbLine
 10
11.76436182912153
 20
14.54081454639264
 30
0.0
 11
11.77075443830961
 21
14.55033994063945
 31
0.0
  0
LINE
  5
6EB
330
22
100
AcDbEntity
  8
0
 62
     0
 48
0.2
100
AcDbLine
 10
11.70380580504309
 20
14.42305757700412
 30
0.0
 11
11.70138747277952
 21
14.4156957301159
 31
0.0
  0
ARC
  5
6EC
330
22
100
AcDbEntity
  8
0
 62
     0
 48
0.2
100
AcDbCircle
 10
11.68694290827955
 20
14.5061780749174
 30
0.0
 40
0.0848137633913994
100
AcDbArc
 50
281.4681189589955
 51
308.411041991408
  0
ARC
  5
6ED
330
22
100
AcDbEntity
  8
0
 62
     0
 48
0.2
100
AcDbCircle
 10
11.68694290827955
 20
14.5061780749174
 30
0.0
 40
0.0848137633913994
100
AcDbArc
 50
334.4265189455825
 51
24.1032773215849
  0
ARC
  5
6EE
330
22
100
AcDbEntity
  8
0
 62
     0
 48
0.2
100
AcDbCircle
 10
11.68214022514167
 20
14.52616908642804
 30
0.0
 40
0.0918515594243309
100
AcDbArc
 50
15.25712965813707
 51
35.25098450433946
  0
ARC
  5
6EF
330
22
100
AcDbEntity
  8
0
 62
     0
 48
0.2
100
AcDbCircle
 10
11.68841832539374
 20
14.52283827925572
 30
0.0
 40
0.0933009088310053
100
AcDbArc
 50
81.41817869327765
 51
104.5237734430905
  0
ARC
  5
6F0
330
22
100
AcDbEntity
  8
0
 62
     0
 48
0.2
100
AcDbCircle
 10
11.68610267772942
 20
14.53555275072385
 30
0.0
 40
0.0727386086016489
100
AcDbArc
 50
33.03680970763666
 51
77.40144082820791
  0
ARC
  5
6F1
330
22
100
AcDbEntity
  8
0
 62
     0
 48
0.2
100
AcDbCircle
 10
11.63780177321246
 20
14.53394006050758
 30
0.0
 40
0.04948761225468
100
AcDbArc
 50
118.6177785198428
 51
176.6072446944509
  0
ARC
  5
6F2
330
22
100
AcDbEntity
  8
0
 62
     0
 48
0.2
100
AcDbCircle
 10
11.64801304325965
 20
14.48664934927226
 30
0.0
 40
0.0616945009273182
100
AcDbArc
 50
193.3443872386965
 51
227.2244038256962
  0
ARC
  5
6F3
330
22
100
AcDbEntity
  8
0
 62
     0
 48
0.2
100
AcDbCircle
 10
11.67579417088359
 20
14.44792880831325
 30
0.0
 40
0.0411580907234789
100
AcDbArc
 50
250.0680226981044
 51
308.4498344357166
  0
ELLIPSE
  5
6F4
330
22
100
AcDbEntity
  8
0
 62
     0
 48
0.2
100
AcDbEllipse
 10
11.69711448884311
 20
14.50395443209426
 30
0.0
 11
0.007946596312445662
 21
0.07467320248232676
 31
0.0
210
0.0
220
0.0
230
1.0
 40
0.9154492466058489
 41
4.406472054452856
 42
10.14619650061691
  0
LWPOLYLINE
  5
6F5
330
22
100
AcDbEntity
  8
0
 62
     0
 48
0.2
100
AcDbPolyline
 90
        3
 70
     0
 43
0.0
 10
11.6776238472105
 20
14.51163321921345
 42
-0.0883737418002099
 10
11.7262772450664
 20
14.45563996825668
 42
0.188810354802735
 10
11.78320367134006
 20
14.41595618777875
  0
LWPOLYLINE
  5
6F6
330
22
100
AcDbEntity
  8
0
 62
     0
 48
0.2
100
AcDbPolyline
 90
        4
 70
     0
 43
0.0
 10
11.82123269000499
 20
14.41465282608139
 42
0.0129665288595411
 10
11.82607573278028
 20
14.4155991493425
 42
0.1362613615281726
 10
11.95985052778542
 20
14.453986107763
 42
0.0256514926687318
 10
11.9679132163385
 20
14.46223834719574
 42
0.0256514926687318
  0
LWPOLYLINE
  5
6F7
330
22
100
AcDbEntity
  8
0
 62
     0
 48
0.2
100
AcDbPolyline
 90
        4
 70
     0
 43
0.0
 10
11.99415237152471
 20
14.51620356460013
 42
0.1429978630312186
 10
11.98776650188768
 20
14.57894771925821
 42
0.4097585773075303
 10
11.90257522622528
 20
14.61868889713215
 42
0.0980637599097756
 10
11.85578205378351
 20
14.59296961133963
 42
0.0980637599097756
  0
LWPOLYLINE
  5
6F8
330
22
100
AcDbEntity
  8
0
 62
     0
 48
0.2
100
AcDbPolyline
 90
        4
 70
     0
 43
0.0
 10
11.7920792450816
 20
14.43374314407201
 42
0.1056882364663028
 10
11.82380285141903
 20
14.43482447902588
 42
0.1364397172413031
 10
11.94813497668918
 20
14.46937402515732
 42
0.0692031576732675
 10
11.96403708613491
 20
14.48956113849745
 42
0.0692031576732675
  0
LWPOLYLINE
  5
6F9
330
22
100
AcDbEntity
  8
0
 62
     0
 48
0.2
100
AcDbPolyline
 90
        2
 70
     0
 43
0.0
 10
11.97078655368148
 20
14.50371886354429
 42
0.0398483170577674
 10
11.9749037837006
 20
14.51798120772037
  0
LWPOLYLINE
  5
6FA
330
22
100
AcDbEntity
  8
0
 62
     0
 48
0.2
100
AcDbPolyline
 90
        2
 70
     0
 43
0.0
 10
11.90871792592282
 20
14.60045739795405
 42
0.1387155337061121
 10
11.85488863641069
 20
14.56520415832757
  0
LWPOLYLINE
  5
6FB
330
22
100
AcDbEntity
  8
0
 62
     0
 48
0.2
100
AcDbPolyline
 90
        4
 70
     0
 43
0.0
 10
11.85476634920883
 20
14.56140374022901
 42
-0.0662518057707608
 10
11.9165168758484
 20
14.60475188211257
 42
-0.3616904375437068
 10
11.97649314583907
 20
14.59726849377735
 42
-0.1286898211603008
 10
11.99343539039114
 20
14.4989298244146
 42
-0.1286898211603008
  0
LWPOLYLINE
  5
6FC
330
22
100
AcDbEntity
  8
0
 62
     0
 48
0.2
100
AcDbPolyline
 90
        5
 70
     0
 43
0.0
 10
11.99129306667044
 20
14.48228026591525
 42
-0.0184626028069274
 10
11.98829599995599
 20
14.46804409678687
 42
-0.433445065034986
 10
11.87507573826895
 20
14.3833885724668
 42
-0.228152188544149
 10
11.76227034569979
 20
14.43705323763719
 42
0.0437129938295815
 10
11.68970764397091
 20
14.52970171086005
  0
LWPOLYLINE
  5
6FD
330
22
100
AcDbEntity
  8
0
 62
     0
 48
0.2
100
AcDbPolyline
 90
        4
 70
     0
 43
0.0
 10
11.85386662504118
 20
14.53344228586367
 42
-0.0856638351417354
 10
11.92625317404497
 20
14.58813296631185
 42
-0.3408559350053579
 10
11.96040368573142
 20
14.58609780425215
 42
-0.11896557813329
 10
11.97452132916123
 20
14.50386000503103
 42
-0.11896557813329
  0
LWPOLYLINE
  5
6FE
330
22
100
AcDbEntity
  8
0
 62
     0
 48
0.2
100
AcDbPolyline
 90
        5
 70
     0
 43
0.0
 10
11.97289139731254
 20
14.48896053906776
 42
-0.0249416716336159
 10
11.9693517247639
 20
14.47158716906215
 42
-0.4468587770432536
 10
11.8768339161212
 20
14.40287203217284
 42
-0.2317149464660521
 10
11.77753143082145
 20
14.44886361944108
 42
0.0345575094741709
 10
11.71970300725764
 20
14.52518638917441
  0
LWPOLYLINE
  5
6FF
330
22
100
AcDbEntity
  8
0
 62
     0
 48
0.2
100
AcDbPolyline
 90
        4
 70
     0
 43
0.0
 10
11.85386662504118
 20
14.53344228586367
 42
-0.0856638351417354
 10
11.92625317404497
 20
14.58813296631185
 42
-0.3408559350053579
 10
11.96040368573142
 20
14.58609780425215
 42
-0.11896557813329
 10
11.97452132916123
 20
14.50386000503103
 42
-0.11896557813329
  0
LWPOLYLINE
  5
700
330
22
100
AcDbEntity
  8
0
 62
     0
 48
0.2
100
AcDbPolyline
 90
        5
 70
     0
 43
0.0
 10
11.97169571977736
 20
14.48203192337708
 42
-0.0150524096261875
 10
11.9693517247639
 20
14.47158716906215
 42
-0.4468587770432536
 10
11.8768339161212
 20
14.40287203217284
 42
-0.2317149464660521
 10
11.77753143082145
 20
14.44886361944108
 42
0.03977104780415
 10
11.71009379518716
 20
14.53596941165463
  0
ARC
  5
701
330
22
100
AcDbEntity
  8
0
 62
     0
 48
0.2
100
AcDbCircle
 10
11.79096060484108
 20
14.5685036802541
 30
0.0
 40
0.2336621396860192
100
AcDbArc
 50
339.4429552075935
 51
0.3981697658790019
  0
ARC
  5
702
330
22
100
AcDbEntity
  8
0
 62
     0
 48
0.2
100
AcDbCircle
 10
11.79096060484108
 20
14.5685036802541
 30
0.0
 40
0.2144272197557989
100
AcDbArc
 50
285.5230189454501
 51
299.5725107770368
  0
LWPOLYLINE
  5
703
330
22
100
AcDbEntity
  8
0
 62
     0
 48
0.2
100
AcDbPolyline
 90
        2
 70
     0
 43
0.0
 10
11.84801033450037
 20
14.3514416165624
 42
0.2251810454867936
 10
11.95319463827593
 20
14.4036469133747
  0
LWPOLYLINE
  5
704
330
22
100
AcDbEntity
  8
0
 62
     0
 48
0.2
100
AcDbPolyline
 90
        2
 70
     0
 43
0.0
 10
11.99401297853103
 20
14.50830552934748
 42
0.054822005219289
 10
12.00005312333667
 20
14.57762638917957
  0
LWPOLYLINE
  5
705
330
22
100
AcDbEntity
  8
0
 62
     0
 48
0.2
100
AcDbPolyline
 90
        3
 70
     0
 43
0.0
 10
11.84739105111396
 20
14.33219564677249
 42
0.3378018490719188
 10
11.99670047582367
 20
14.44882210421956
 42
0.0171020702924928
 10
12.00427576229822
 20
14.47062492268738
 42
0.0171020702924928
  0
LWPOLYLINE
  5
706
330
22
100
AcDbEntity
  8
0
 62
     0
 48
0.2
100
AcDbPolyline
 90
        2
 70
     0
 43
0.0
 10
12.00900628398733
 20
14.48743450254605
 42
0.0678716983057031
 10
12.01928312224845
 20
14.57806145994832
  0
LINE
  5
707
330
22
100
AcDbEntity
  8
0
 62
     0
 48
0.2
100
AcDbLine
 10
12.01928312224845
 20
14.57806145994832
 30
0.0
 11
12.00005312333667
 21
14.57762638917957
 31
0.0
  0
LINE
  5
708
330
22
100
AcDbEntity
  8
0
 62
     0
 48
0.2
100
AcDbLine
 10
12.02461710233467
 20
14.5701274726415
 30
0.0
 11
12.01936795647066
 21
14.56941723828449
 31
0.0
  0
ELLIPSE
  5
709
330
22
100
AcDbEntity
  8
0
 62
     0
 48
0.2
100
AcDbEllipse
 10
11.98060368323377
 20
14.47344371373528
 30
0.0
 11
-0.02491055742439153
 21
0.01094564389295488
 31
0.0
210
0.0
220
0.0
230
1.0
 40
0.4677978757078268
 41
2.653432933268616
 42
6.748808666601089
  0
ELLIPSE
  5
70A
330
22
100
AcDbEntity
  8
0
 62
     0
 48
0.2
100
AcDbEllipse
 10
11.98697700143475
 20
14.48788494612737
 30
0.0
 11
-0.02491055742439153
 21
0.01094564389295488
 31
0.0
210
0.0
220
0.0
230
1.0
 40
0.4677978757078268
 41
3.140836332090003
 42
6.316266137343732
  0
LINE
  5
70B
330
22
100
AcDbEntity
  8
0
 62
     0
 48
0.2
100
AcDbLine
 10
12.00551274186159
 20
14.46249466171096
 30
0.0
 11
12.01188367910493
 21
14.47693049187136
 31
0.0
  0
LINE
  5
70C
330
22
100
AcDbEntity
  8
0
 62
     0
 48
0.2
100
AcDbLine
 10
11.9556932984093
 20
14.48438975039967
 30
0.0
 11
11.96191071859164
 21
14.49843917732248
 31
0.0
  0
ARC
  5
70D
330
22
100
AcDbEntity
  8
0
 62
     0
 48
0.2
100
AcDbCircle
 10
11.40198471145732
 20
14.59285618701219
 30
0.0
 40
0.6038851465429312
100
AcDbArc
 50
358.5669493361877
 51
3.733793349838413
  0
ARC
  5
70E
330
22
100
AcDbEntity
  8
0
 62
     0
 48
0.2
100
AcDbCircle
 10
11.40198471145732
 20
14.59285618701219
 30
0.0
 40
0.6116594490682077
100
AcDbArc
 50
358.6016627407371
 51
3.733793349836716
  0
ARC
  5
70F
330
22
100
AcDbEntity
  8
0
 62
     0
 48
0.2
100
AcDbCircle
 10
12.00887623711799
 20
14.62616302386414
 30
0.0
 40
0.0073900788197468
100
AcDbArc
 50
61.99848143698127
 51
125.4691052635737
  0
ARC
  5
710
330
22
100
AcDbEntity
  8
0
 62
     0
 48
0.2
100
AcDbCircle
 10
11.40934340365914
 20
14.57538979551627
 30
0.0
 40
0.6116594490682077
100
AcDbArc
 50
359.4609047141304
 51
3.733793349835388
  0
ARC
  5
711
330
22
100
AcDbEntity
  8
0
 62
     0
 48
0.2
100
AcDbCircle
 10
12.01623492931992
 20
14.60869663236822
 30
0.0
 40
0.0073900788197468
100
AcDbArc
 50
61.99848143698127
 51
114.0192517229391
  0
LINE
  5
712
330
22
100
AcDbEntity
  8
0
 62
     0
 48
0.2
100
AcDbLine
 10
11.47630607703354
 20
14.58316143327296
 30
0.0
 11
11.47630607703354
 21
14.32372318387105
 31
0.0
  0
LWPOLYLINE
  5
713
330
22
100
AcDbEntity
  8
0
 62
     0
 48
0.2
100
AcDbPolyline
 90
        2
 70
     0
 43
0.0
 10
12.76954064355675
 20
14.8166456750901
 10
12.76954064355675
 20
14.80238328104724
  0
LWPOLYLINE
  5
714
330
22
100
AcDbEntity
  8
0
 62
     0
 48
0.2
100
AcDbPolyline
 90
        2
 70
     0
 43
0.0
 10
12.76954064355675
 20
14.7581227018113
 10
12.76954064355675
 20
14.74831588409604
  0
LWPOLYLINE
  5
715
330
22
100
AcDbEntity
  8
0
 62
     0
 48
0.2
100
AcDbPolyline
 90
        2
 70
     0
 43
0.0
 10
12.76954064355675
 20
14.7040699785605
 10
12.76954064355675
 20
14.69566865694939
  0
LWPOLYLINE
  5
716
330
22
100
AcDbEntity
  8
0
 62
     0
 48
0.2
100
AcDbPolyline
 90
        2
 70
     0
 43
0.0
 10
12.76954064355675
 20
14.65145209458588
 10
12.76954064355675
 20
14.55270399497576
  0
LWPOLYLINE
  5
717
330
22
100
AcDbEntity
  8
0
 62
     0
 48
0.2
100
AcDbPolyline
 90
        2
 70
     0
 43
0.0
 10
12.57283194114302
 20
14.58136966827044
 10
12.57283194114302
 20
14.8490206260178
  0
ELLIPSE
  5
718
330
22
100
AcDbEntity
  8
0
 62
     0
 48
0.2
100
AcDbEllipse
 10
12.67118629235006
 20
14.8490206260178
 30
0.0
 11
-0.0983543512068247
 21
0.0
 31
0.0
210
0.0
220
0.0
230
1.0
 40
0.6610161015229672
 41
3.422937137841762
 42
8.441563740153086
  0
ELLIPSE
  5
719
330
22
100
AcDbEntity
  8
0
 62
     0
 48
0.2
100
AcDbEllipse
 10
12.67118629235006
 20
14.55270399497576
 30
0.0
 11
-0.0983543512068247
 21
0.0
 31
0.0
210
0.0
220
0.0
230
1.0
 40
0.6610161015229672
 41
0.6635564009966445
 42
1.168392322075093
  0
ELLIPSE
  5
71A
330
22
100
AcDbEntity
  8
0
 62
     0
 48
0.2
100
AcDbEllipse
 10
12.67118629235006
 20
14.55270399497576
 30
0.0
 11
-0.0983543512068247
 21
0.0
 31
0.0
210
0.0
220
0.0
230
1.0
 40
0.6610161015229672
 41
1.584209842125597
 42
3.141592653589793
  0
LINE
  5
71B
330
22
100
AcDbEntity
  8
0
 62
     0
 48
0.2
100
AcDbLine
 10
12.7126969919525
 20
15.10764595175519
 30
0.0
 11
12.91608725476192
 21
14.98599904801914
 31
0.0
  0
LINE
  5
71C
330
22
100
AcDbEntity
  8
0
 62
     0
 48
0.2
100
AcDbLine
 10
12.91608725476192
 20
14.98599904801914
 30
0.0
 11
12.72570905371708
 21
14.8354727519084
 31
0.0
  0
LINE
  5
71D
330
22
100
AcDbEntity
  8
0
 62
     0
 48
0.2
100
AcDbLine
 10
12.72570905371708
 20
14.8354727519084
 30
0.0
 11
12.72570905371708
 21
14.7941177945074
 31
0.0
  0
LINE
  5
71E
330
22
100
AcDbEntity
  8
0
 62
     0
 48
0.2
100
AcDbLine
 10
12.5079949191304
 20
14.96640406772373
 30
0.0
 11
12.71185028653645
 21
15.1178223419852
 31
0.0
  0
LINE
  5
71F
330
22
100
AcDbEntity
  8
0
 62
     0
 48
0.2
100
AcDbLine
 10
12.71185028653645
 20
15.1178223419852
 30
0.0
 11
12.92757520102248
 21
14.98587490328228
 31
0.0
  0
LINE
  5
720
330
22
100
AcDbEntity
  8
0
 62
     0
 48
0.2
100
AcDbLine
 10
12.92757520102248
 20
14.98587490328228
 30
0.0
 11
12.73668774132966
 21
14.83141758013183
 31
0.0
  0
LINE
  5
721
330
22
100
AcDbEntity
  8
0
 62
     0
 48
0.2
100
AcDbLine
 10
12.73668774132966
 20
14.83141758013183
 30
0.0
 11
12.72570905371708
 21
14.8354727519084
 31
0.0
  0
LINE
  5
722
330
22
100
AcDbEntity
  8
0
 62
     0
 48
0.2
100
AcDbLine
 10
12.73668774132966
 20
14.83141758013183
 30
0.0
 11
12.73668774132966
 21
14.79006262273084
 31
0.0
  0
LINE
  5
723
330
22
100
AcDbEntity
  8
0
 62
     0
 48
0.2
100
AcDbLine
 10
12.92757520102248
 20
14.94451994588131
 30
0.0
 11
12.73668774132966
 21
14.79006262273084
 31
0.0
  0
LINE
  5
724
330
22
100
AcDbEntity
  8
0
 62
     0
 48
0.2
100
AcDbLine
 10
12.92757520102248
 20
14.98587490328228
 30
0.0
 11
12.92757520102248
 21
14.94451994588131
 31
0.0
  0
LINE
  5
725
330
22
100
AcDbEntity
  8
0
 62
     0
 48
0.2
100
AcDbLine
 10
12.73668774132966
 20
14.79006262273084
 30
0.0
 11
12.72570905371708
 21
14.7941177945074
 31
0.0
  0
LINE
  5
726
330
22
100
AcDbEntity
  8
0
 62
     0
 48
0.2
100
AcDbLine
 10
12.5079949191304
 20
14.96640406772373
 30
0.0
 11
12.5079949191304
 21
14.92504911032276
 31
0.0
  0
LINE
  5
727
330
22
100
AcDbEntity
  8
0
 62
     0
 48
0.2
100
AcDbLine
 10
12.7126969919525
 20
15.10764595175519
 30
0.0
 11
12.51897360674297
 21
14.96234889594719
 31
0.0
  0
LINE
  5
728
330
22
100
AcDbEntity
  8
0
 62
     0
 48
0.2
100
AcDbLine
 10
12.51897360674297
 20
14.96234889594719
 30
0.0
 11
12.5079949191304
 21
14.96640406772373
 31
0.0
  0
LINE
  5
729
330
22
100
AcDbEntity
  8
0
 62
     0
 48
0.2
100
AcDbLine
 10
12.51897360674297
 20
14.96234889594719
 30
0.0
 11
12.51897360674297
 21
14.92099393854622
 31
0.0
  0
LINE
  5
72A
330
22
100
AcDbEntity
  8
0
 62
     0
 48
0.2
100
AcDbLine
 10
12.7096018993351
 20
15.06477861569635
 30
0.0
 11
12.51897360674297
 21
14.92099393854622
 31
0.0
  0
ARC
  5
72B
330
22
100
AcDbEntity
  8
0
 62
     0
 48
0.2
100
AcDbCircle
 10
12.7126969919525
 20
15.06067517273767
 30
0.0
 40
0.0051398290266825
100
AcDbArc
 50
52.97394569577614
 51
127.0260543042239
  0
LINE
  5
72C
330
22
100
AcDbEntity
  8
0
 62
     0
 48
0.2
100
AcDbLine
 10
12.51897360674297
 20
14.92099393854622
 30
0.0
 11
12.5079949191304
 21
14.92504911032276
 31
0.0
  0
LINE
  5
72D
330
22
100
AcDbEntity
  8
0
 62
     0
 48
0.2
100
AcDbLine
 10
12.51946570708049
 20
14.90607565637164
 30
0.0
 11
12.70958210953245
 21
15.05092065661258
 31
0.0
  0
ARC
  5
72E
330
22
100
AcDbEntity
  8
0
 62
     0
 48
0.2
100
AcDbCircle
 10
12.7126969919525
 20
15.0468322155977
 30
0.0
 40
0.0051398290266825
100
AcDbArc
 50
52.69711804861677
 51
127.3028819529673
  0
LINE
  5
72F
330
22
100
AcDbEntity
  8
0
 62
     0
 48
0.2
100
AcDbLine
 10
12.51946570708049
 20
14.90607565637164
 30
0.0
 11
12.51946570708049
 21
14.87345783074984
 31
0.0
  0
LINE
  5
730
330
22
100
AcDbEntity
  8
0
 62
     0
 48
0.2
100
AcDbLine
 10
12.70956089642277
 20
15.03996252358631
 30
0.0
 11
12.53044439469295
 21
14.90202048459507
 31
0.0
  0
ARC
  5
731
330
22
100
AcDbEntity
  8
0
 62
     0
 48
0.2
100
AcDbCircle
 10
12.7126969919525
 20
15.03589033163929
 30
0.0
 40
0.0051398290266825
100
AcDbArc
 50
52.39924436575733
 51
127.6007556342427
  0
LINE
  5
732
330
22
100
AcDbEntity
  8
0
 62
     0
 48
0.2
100
AcDbLine
 10
12.53044439469295
 20
14.90202048459507
 30
0.0
 11
12.51946570708049
 21
14.90607565637164
 31
0.0
  0
LINE
  5
733
330
22
100
AcDbEntity
  8
0
 62
     0
 48
0.2
100
AcDbLine
 10
12.53044439469295
 20
14.90202048459507
 30
0.0
 11
12.53044439469295
 21
14.8694026589733
 31
0.0
  0
LINE
  5
734
330
22
100
AcDbEntity
  8
0
 62
     0
 48
0.2
100
AcDbLine
 10
12.53044439469295
 20
14.8694026589733
 30
0.0
 11
12.51946570708049
 21
14.87345783074984
 31
0.0
  0
LINE
  5
735
330
22
100
AcDbEntity
  8
0
 62
     0
 48
0.2
100
AcDbLine
 10
12.71579208456944
 20
15.06477861569635
 30
0.0
 11
12.72583261793773
 21
15.05720537025024
 31
0.0
  0
LINE
  5
736
330
22
100
AcDbEntity
  8
0
 62
     0
 48
0.2
100
AcDbLine
 10
12.73039430191113
 20
15.03981066455982
 30
0.0
 11
12.71581187437255
 21
15.05092065661258
 31
0.0
  0
LINE
  5
737
330
22
100
AcDbEntity
  8
0
 62
     0
 48
0.2
100
AcDbLine
 10
12.71583308748177
 20
15.03996252358631
 30
0.0
 11
12.72670168390573
 21
15.03159234921834
 31
0.0
  0
ARC
  5
738
330
22
100
AcDbEntity
  8
0
 62
     0
 48
0.2
100
AcDbCircle
 10
12.72810097201409
 20
15.03340931229039
 30
0.0
 40
0.0022933298969072
100
AcDbArc
 50
232.3992443631039
 51
0.0
  0
LINE
  5
739
330
22
100
AcDbEntity
  8
0
 62
     0
 48
0.2
100
AcDbLine
 10
12.73039430191113
 20
15.04805083576234
 30
0.0
 11
12.73039430191113
 21
15.03340931229039
 31
0.0
  0
ARC
  5
73A
330
22
100
AcDbEntity
  8
0
 62
     0
 48
0.2
100
AcDbCircle
 10
12.71892765242649
 20
15.04805083576234
 30
0.0
 40
0.0114666494845361
100
AcDbArc
 50
0.0
 51
52.97394569625409
  0
LINE
  5
73B
330
22
100
AcDbEntity
  8
0
 62
     0
 48
0.2
100
AcDbLine
 10
12.70956089642277
 20
15.01443978673844
 30
0.0
 11
12.53044439469295
 21
14.8694026589733
 31
0.0
  0
LINE
  5
73C
330
22
100
AcDbEntity
  8
0
 62
     0
 48
0.2
100
AcDbLine
 10
12.52518743160181
 20
14.84969361178243
 30
0.0
 11
12.70954110661978
 21
15.0005818276547
 31
0.0
  0
LINE
  5
73D
330
22
100
AcDbEntity
  8
0
 62
     0
 48
0.2
100
AcDbLine
 10
12.52518743160181
 20
14.84969361178243
 30
0.0
 11
12.52518743160181
 21
14.81707578616063
 31
0.0
  0
LINE
  5
73E
330
22
100
AcDbEntity
  8
0
 62
     0
 48
0.2
100
AcDbLine
 10
12.70951989351056
 20
14.98962369462841
 30
0.0
 11
12.53616611921439
 21
14.84563844000589
 31
0.0
  0
LINE
  5
73F
330
22
100
AcDbEntity
  8
0
 62
     0
 48
0.2
100
AcDbLine
 10
12.53616611921439
 20
14.84563844000589
 30
0.0
 11
12.52518743160181
 21
14.84969361178243
 31
0.0
  0
LINE
  5
740
330
22
100
AcDbEntity
  8
0
 62
     0
 48
0.2
100
AcDbLine
 10
12.53616611921439
 20
14.84563844000589
 30
0.0
 11
12.53616611921439
 21
14.81302061438409
 31
0.0
  0
LINE
  5
741
330
22
100
AcDbEntity
  8
0
 62
     0
 48
0.2
100
AcDbLine
 10
12.53616611921439
 20
14.81302061438409
 30
0.0
 11
12.52518743160181
 21
14.81707578616063
 31
0.0
  0
LINE
  5
742
330
22
100
AcDbEntity
  8
0
 62
     0
 48
0.2
100
AcDbLine
 10
12.70911227777708
 20
14.95805774214925
 30
0.0
 11
12.65564359230802
 21
14.91321751771021
 31
0.0
  0
LINE
  5
743
330
22
100
AcDbEntity
  8
0
 62
     0
 48
0.2
100
AcDbLine
 10
12.57283194114302
 20
14.84376952227477
 30
0.0
 11
12.53616611921439
 21
14.81302061438409
 31
0.0
  0
ARC
  5
744
330
22
100
AcDbEntity
  8
0
 62
     0
 48
0.2
100
AcDbCircle
 10
12.71265598903983
 20
15.01033634377978
 30
0.0
 40
0.0051398290266825
100
AcDbArc
 50
52.97394569577614
 51
127.0260543042239
  0
ARC
  5
745
330
22
100
AcDbEntity
  8
0
 62
     0
 48
0.2
100
AcDbCircle
 10
12.71265598903983
 20
14.99649338663981
 30
0.0
 40
0.0051398290266825
100
AcDbArc
 50
52.69711804861677
 51
127.3028819529673
  0
ARC
  5
746
330
22
100
AcDbEntity
  8
0
 62
     0
 48
0.2
100
AcDbCircle
 10
12.71265598903983
 20
14.98555150268142
 30
0.0
 40
0.0051398290266825
100
AcDbArc
 50
52.39924436575733
 51
127.6007556342427
  0
LINE
  5
747
330
22
100
AcDbEntity
  8
0
 62
     0
 48
0.2
100
AcDbLine
 10
12.71575108165712
 20
15.01443978673844
 30
0.0
 11
12.7257916150254
 21
15.00686654129238
 31
0.0
  0
LINE
  5
748
330
22
100
AcDbEntity
  8
0
 62
     0
 48
0.2
100
AcDbLine
 10
12.73035329899892
 20
14.98947183560196
 30
0.0
 11
12.71577087146022
 21
15.0005818276547
 31
0.0
  0
LINE
  5
749
330
22
100
AcDbEntity
  8
0
 62
     0
 48
0.2
100
AcDbLine
 10
12.71579208456944
 20
14.98962369462841
 30
0.0
 11
12.72666068099306
 21
14.98125352026048
 31
0.0
  0
ARC
  5
74A
330
22
100
AcDbEntity
  8
0
 62
     0
 48
0.2
100
AcDbCircle
 10
12.72805996910176
 20
14.9830704833325
 30
0.0
 40
0.0022933298969072
100
AcDbArc
 50
232.3992443664374
 51
0.0
  0
LINE
  5
74B
330
22
100
AcDbEntity
  8
0
 62
     0
 48
0.2
100
AcDbLine
 10
12.73035329899892
 20
14.99771200680443
 30
0.0
 11
12.73035329899892
 21
14.9830704833325
 31
0.0
  0
ARC
  5
74C
330
22
100
AcDbEntity
  8
0
 62
     0
 48
0.2
100
AcDbCircle
 10
12.71888664951427
 20
14.99771200680443
 30
0.0
 40
0.0114666494845361
100
AcDbArc
 50
0.0
 51
52.9739456969214
  0
ARC
  5
74D
330
22
100
AcDbEntity
  8
0
 62
     0
 48
0.2
100
AcDbCircle
 10
12.71220737039403
 20
14.9539542991906
 30
0.0
 40
0.0051398290266825
100
AcDbArc
 50
52.97394569577614
 51
127.0260543026397
  0
ARC
  5
74E
330
22
100
AcDbEntity
  8
0
 62
     0
 48
0.2
100
AcDbCircle
 10
12.71220737039403
 20
14.94011134205063
 30
0.0
 40
0.0051398290266825
100
AcDbArc
 50
52.69711804703267
 51
127.3028819513832
  0
ARC
  5
74F
330
22
100
AcDbEntity
  8
0
 62
     0
 48
0.2
100
AcDbCircle
 10
12.71220737039403
 20
14.9291694580922
 30
0.0
 40
0.0051398290266825
100
AcDbArc
 50
52.39924436575733
 51
127.6007556342427
  0
LINE
  5
750
330
22
100
AcDbEntity
  8
0
 62
     0
 48
0.2
100
AcDbLine
 10
12.71530246301143
 20
14.95805774214925
 30
0.0
 11
12.72534299637971
 21
14.95048449670317
 31
0.0
  0
LINE
  5
751
330
22
100
AcDbEntity
  8
0
 62
     0
 48
0.2
100
AcDbLine
 10
12.72990468035312
 20
14.93308979101276
 30
0.0
 11
12.71532225281453
 21
14.94419978306551
 31
0.0
  0
LINE
  5
752
330
22
100
AcDbEntity
  8
0
 62
     0
 48
0.2
100
AcDbLine
 10
12.71534346592375
 20
14.93324165003922
 30
0.0
 11
12.72621206234737
 21
14.92487147567128
 31
0.0
  0
ARC
  5
753
330
22
100
AcDbEntity
  8
0
 62
     0
 48
0.2
100
AcDbCircle
 10
12.72761135045607
 20
14.92668843874331
 30
0.0
 40
0.0022933298969072
100
AcDbArc
 50
232.3992443631039
 51
0.0
  0
LINE
  5
754
330
22
100
AcDbEntity
  8
0
 62
     0
 48
0.2
100
AcDbLine
 10
12.72990468035312
 20
14.94132996221525
 30
0.0
 11
12.72990468035312
 21
14.92668843874331
 31
0.0
  0
ARC
  5
755
330
22
100
AcDbEntity
  8
0
 62
     0
 48
0.2
100
AcDbCircle
 10
12.71843803086813
 20
14.94132996221525
 30
0.0
 40
0.0114666494845361
100
AcDbArc
 50
0.0
 51
52.9739456969214
  0
LINE
  5
756
330
22
100
AcDbEntity
  8
0
 62
     0
 48
0.2
100
AcDbLine
 10
12.5390968729921
 20
14.79632644709969
 30
0.0
 11
12.57283194114302
 21
14.82567142206896
 31
0.0
  0
LINE
  5
757
330
22
100
AcDbEntity
  8
0
 62
     0
 48
0.2
100
AcDbLine
 10
12.67437502700818
 20
14.91400025839076
 30
0.0
 11
12.70909248797398
 21
14.94419978306551
 31
0.0
  0
LINE
  5
758
330
22
100
AcDbEntity
  8
0
 62
     0
 48
0.2
100
AcDbLine
 10
12.5390968729921
 20
14.79632644709969
 30
0.0
 11
12.5390968729921
 21
14.7637086214779
 31
0.0
  0
LINE
  5
759
330
22
100
AcDbEntity
  8
0
 62
     0
 48
0.2
100
AcDbLine
 10
12.70907127486475
 20
14.93324165003922
 30
0.0
 11
12.68651239267911
 21
14.91324026767685
 31
0.0
  0
LINE
  5
75A
330
22
100
AcDbEntity
  8
0
 62
     0
 48
0.2
100
AcDbLine
 10
12.57283194114302
 20
14.81244776565578
 30
0.0
 11
12.55007556060457
 21
14.79227127532316
 31
0.0
  0
LINE
  5
75B
330
22
100
AcDbEntity
  8
0
 62
     0
 48
0.2
100
AcDbLine
 10
12.55007556060457
 20
14.79227127532316
 30
0.0
 11
12.5390968729921
 21
14.79632644709969
 31
0.0
  0
LINE
  5
75C
330
22
100
AcDbEntity
  8
0
 62
     0
 48
0.2
100
AcDbLine
 10
12.55007556060457
 20
14.79227127532316
 30
0.0
 11
12.55007556060457
 21
14.75965344970136
 31
0.0
  0
LINE
  5
75D
330
22
100
AcDbEntity
  8
0
 62
     0
 48
0.2
100
AcDbLine
 10
12.55007556060457
 20
14.75965344970136
 30
0.0
 11
12.5390968729921
 21
14.7637086214779
 31
0.0
  0
LINE
  5
75E
330
22
100
AcDbEntity
  8
0
 62
     0
 48
0.2
100
AcDbLine
 10
12.72302171916738
 20
14.90469057746652
 30
0.0
 11
12.72268638163075
 21
14.90440935472358
 31
0.0
  0
LINE
  5
75F
330
22
100
AcDbEntity
  8
0
 62
     0
 48
0.2
100
AcDbLine
 10
12.57283194114302
 20
14.77873753979662
 30
0.0
 11
12.55007556060457
 21
14.75965344970136
 31
0.0
  0
LINE
  5
760
330
22
100
AcDbEntity
  8
0
 62
     0
 48
0.2
100
AcDbLine
 10
12.91379412858441
 20
14.91644015669321
 30
0.0
 11
12.73389070798305
 21
14.77419595324893
 31
0.0
  0
LINE
  5
761
330
22
100
AcDbEntity
  8
0
 62
     0
 48
0.2
100
AcDbLine
 10
12.73389070798305
 20
14.77419595324893
 30
0.0
 11
12.73389070798305
 21
14.74221503828684
 31
0.0
  0
LINE
  5
762
330
22
100
AcDbEntity
  8
0
 62
     0
 48
0.2
100
AcDbLine
 10
12.92541965970167
 20
14.91623372300329
 30
0.0
 11
12.74486939559552
 21
14.77014078147236
 31
0.0
  0
LINE
  5
763
330
22
100
AcDbEntity
  8
0
 62
     0
 48
0.2
100
AcDbLine
 10
12.74486939559552
 20
14.77014078147236
 30
0.0
 11
12.73389070798305
 21
14.77419595324893
 31
0.0
  0
LINE
  5
764
330
22
100
AcDbEntity
  8
0
 62
     0
 48
0.2
100
AcDbLine
 10
12.74486939559552
 20
14.77014078147236
 30
0.0
 11
12.74486939559552
 21
14.73815986651029
 31
0.0
  0
LINE
  5
765
330
22
100
AcDbEntity
  8
0
 62
     0
 48
0.2
100
AcDbLine
 10
12.92541965970167
 20
14.88425280804124
 30
0.0
 11
12.74486939559552
 21
14.73815986651029
 31
0.0
  0
LINE
  5
766
330
22
100
AcDbEntity
  8
0
 62
     0
 48
0.2
100
AcDbLine
 10
12.74486939559552
 20
14.73815986651029
 30
0.0
 11
12.73389070798305
 21
14.74221503828684
 31
0.0
  0
LINE
  5
767
330
22
100
AcDbEntity
  8
0
 62
     0
 48
0.2
100
AcDbLine
 10
12.92541965970167
 20
14.91623372300329
 30
0.0
 11
12.92541965970167
 21
14.88425280804124
 31
0.0
  0
LINE
  5
768
330
22
100
AcDbEntity
  8
0
 62
     0
 48
0.2
100
AcDbLine
 10
12.9067386015339
 20
14.92765993115982
 30
0.0
 11
12.92541965970167
 21
14.91623372300329
 31
0.0
  0
LINE
  5
769
330
22
100
AcDbEntity
  8
0
 62
     0
 48
0.2
100
AcDbLine
 10
12.90176443728853
 20
14.92363506700433
 30
0.0
 11
12.91379412858441
 21
14.91644015669321
 31
0.0
  0
LINE
  5
76A
330
22
100
AcDbEntity
  8
0
 62
     0
 48
0.2
100
AcDbLine
 10
12.91300027076409
 20
14.86174508032974
 30
0.0
 11
12.73309685016238
 21
14.71950087688545
 31
0.0
  0
LINE
  5
76B
330
22
100
AcDbEntity
  8
0
 62
     0
 48
0.2
100
AcDbLine
 10
12.73309685016238
 20
14.71950087688545
 30
0.0
 11
12.73309685016238
 21
14.68751996192337
 31
0.0
  0
LINE
  5
76C
330
22
100
AcDbEntity
  8
0
 62
     0
 48
0.2
100
AcDbLine
 10
12.92462580188101
 20
14.86153864663981
 30
0.0
 11
12.7440755377753
 21
14.71544570510888
 31
0.0
  0
LINE
  5
76D
330
22
100
AcDbEntity
  8
0
 62
     0
 48
0.2
100
AcDbLine
 10
12.7440755377753
 20
14.71544570510888
 30
0.0
 11
12.73309685016238
 21
14.71950087688545
 31
0.0
  0
LINE
  5
76E
330
22
100
AcDbEntity
  8
0
 62
     0
 48
0.2
100
AcDbLine
 10
12.7440755377753
 20
14.71544570510888
 30
0.0
 11
12.7440755377753
 21
14.6834647901468
 31
0.0
  0
LINE
  5
76F
330
22
100
AcDbEntity
  8
0
 62
     0
 48
0.2
100
AcDbLine
 10
12.92462580188101
 20
14.82955773167775
 30
0.0
 11
12.7440755377753
 21
14.6834647901468
 31
0.0
  0
LINE
  5
770
330
22
100
AcDbEntity
  8
0
 62
     0
 48
0.2
100
AcDbLine
 10
12.7440755377753
 20
14.6834647901468
 30
0.0
 11
12.73309685016238
 21
14.68751996192337
 31
0.0
  0
LINE
  5
771
330
22
100
AcDbEntity
  8
0
 62
     0
 48
0.2
100
AcDbLine
 10
12.92462580188101
 20
14.86153864663981
 30
0.0
 11
12.92462580188101
 21
14.82955773167775
 31
0.0
  0
LINE
  5
772
330
22
100
AcDbEntity
  8
0
 62
     0
 48
0.2
100
AcDbLine
 10
12.90909103326658
 20
14.87104043707704
 30
0.0
 11
12.92462580188101
 21
14.86153864663981
 31
0.0
  0
LINE
  5
773
330
22
100
AcDbEntity
  8
0
 62
     0
 48
0.2
100
AcDbLine
 10
12.90414716535088
 20
14.86704008731338
 30
0.0
 11
12.91300027076409
 21
14.86174508032974
 31
0.0
  0
LINE
  5
774
330
22
100
AcDbEntity
  8
0
 62
     0
 48
0.2
100
AcDbLine
 10
12.91141278390057
 20
14.80784267524594
 30
0.0
 11
12.73150936329921
 21
14.66559847180162
 31
0.0
  0
LINE
  5
775
330
22
100
AcDbEntity
  8
0
 62
     0
 48
0.2
100
AcDbLine
 10
12.73150936329921
 20
14.66559847180162
 30
0.0
 11
12.73150936329921
 21
14.63361755683954
 31
0.0
  0
LINE
  5
776
330
22
100
AcDbEntity
  8
0
 62
     0
 48
0.2
100
AcDbLine
 10
12.92303831501783
 20
14.80763624155601
 30
0.0
 11
12.74248805091179
 21
14.66154330002507
 31
0.0
  0
LINE
  5
777
330
22
100
AcDbEntity
  8
0
 62
     0
 48
0.2
100
AcDbLine
 10
12.74248805091179
 20
14.66154330002507
 30
0.0
 11
12.73150936329921
 21
14.66559847180162
 31
0.0
  0
LINE
  5
778
330
22
100
AcDbEntity
  8
0
 62
     0
 48
0.2
100
AcDbLine
 10
12.74248805091179
 20
14.66154330002507
 30
0.0
 11
12.74248805091179
 21
14.629562385063
 31
0.0
  0
LINE
  5
779
330
22
100
AcDbEntity
  8
0
 62
     0
 48
0.2
100
AcDbLine
 10
12.92303831501783
 20
14.77565532659393
 30
0.0
 11
12.74248805091179
 21
14.629562385063
 31
0.0
  0
LINE
  5
77A
330
22
100
AcDbEntity
  8
0
 62
     0
 48
0.2
100
AcDbLine
 10
12.74248805091179
 20
14.629562385063
 30
0.0
 11
12.73150936329921
 21
14.63361755683954
 31
0.0
  0
LINE
  5
77B
330
22
100
AcDbEntity
  8
0
 62
     0
 48
0.2
100
AcDbLine
 10
12.92303831501783
 20
14.80763624155601
 30
0.0
 11
12.92303831501783
 21
14.77565532659393
 31
0.0
  0
LINE
  5
77C
330
22
100
AcDbEntity
  8
0
 62
     0
 48
0.2
100
AcDbLine
 10
12.9085134272367
 20
14.8165203416828
 30
0.0
 11
12.92303831501783
 21
14.80763624155601
 31
0.0
  0
LINE
  5
77D
330
22
100
AcDbEntity
  8
0
 62
     0
 48
0.2
100
AcDbLine
 10
12.90357928369076
 20
14.81252786043034
 30
0.0
 11
12.91141278390057
 21
14.80784267524594
 31
0.0
  0
LWPOLYLINE
  5
77E
330
22
100
AcDbEntity
  8
0
 62
     0
 48
0.2
100
AcDbPolyline
 90
        2
 70
     0
 43
0.0
 10
12.3668225632897
 20
14.54312792616967
 10
12.39076958825797
 20
14.56312213144442
  0
LWPOLYLINE
  5
77F
330
22
100
AcDbEntity
  8
0
 62
     0
 48
0.2
100
AcDbPolyline
 90
        2
 70
     0
 43
0.0
 10
12.50972918559125
 20
14.66244564288927
 10
12.57283194114302
 20
14.71513233151074
  0
LWPOLYLINE
  5
780
330
22
100
AcDbEntity
  8
0
 62
     0
 48
0.2
100
AcDbPolyline
 90
        5
 70
     0
 43
0.0
 10
12.92065697033365
 20
14.68006258208801
 10
13.00515261155465
 20
14.63028433308379
 10
12.49070677767668
 20
14.15116801060644
 10
12.1797420312638
 20
14.38692787354441
 10
12.23878039631836
 20
14.43622106096781
  0
LWPOLYLINE
  5
781
330
22
100
AcDbEntity
  8
0
 62
     0
 48
0.2
100
AcDbPolyline
 90
        5
 70
     1
 43
0.0
 10
12.58323253870344
 20
14.37879718468233
 10
12.53766186631242
 20
14.34845901372223
 10
12.48772546407827
 20
14.24718482316796
 10
12.48741860150653
 20
14.19739901836523
 10
12.59873275361633
 20
14.30328428686722
  0
LWPOLYLINE
  5
782
330
22
100
AcDbEntity
  8
0
 62
     0
 48
0.2
100
AcDbPolyline
 90
        2
 70
     0
 43
0.0
 10
12.34855952919952
 20
14.49205372193926
 10
12.34930651565605
 20
14.49268590087361
  0
LWPOLYLINE
  5
783
330
22
100
AcDbEntity
  8
0
 62
     0
 48
0.2
100
AcDbPolyline
 90
        4
 70
     0
 43
0.0
 10
12.33380630074316
 20
14.56819879868871
 10
12.28823562835214
 20
14.53786062772862
 10
12.23829922611753
 20
14.43658643717434
 10
12.23806472921103
 20
14.39854133720652
  0
LINE
  5
784
330
22
100
AcDbEntity
  8
0
 62
     0
 48
0.2
100
AcDbLine
 10
12.33380630074316
 20
14.56819879868871
 30
0.0
 11
12.58323253870344
 21
14.37879718468233
 31
0.0
  0
LINE
  5
785
330
22
100
AcDbEntity
  8
0
 62
     0
 48
0.2
100
AcDbLine
 10
12.28823562835214
 20
14.53786062772862
 30
0.0
 11
12.316195127838
 21
14.51662960418926
 31
0.0
  0
LINE
  5
786
330
22
100
AcDbEntity
  8
0
 62
     0
 48
0.2
100
AcDbLine
 10
12.32943919262414
 20
14.50657273420217
 30
0.0
 11
12.36048847553297
 21
14.48299548609585
 31
0.0
  0
LINE
  5
787
330
22
100
AcDbEntity
  8
0
 62
     0
 48
0.2
100
AcDbLine
 10
12.37373254031922
 20
14.47293861610878
 30
0.0
 11
12.40478182322761
 21
14.44936136800247
 31
0.0
  0
LINE
  5
788
330
22
100
AcDbEntity
  8
0
 62
     0
 48
0.2
100
AcDbLine
 10
12.41802588801386
 20
14.43930449801537
 30
0.0
 11
12.4490751709227
 21
14.41572724990905
 31
0.0
  0
LINE
  5
789
330
22
100
AcDbEntity
  8
0
 62
     0
 48
0.2
100
AcDbLine
 10
12.46231923570895
 20
14.40567037992196
 30
0.0
 11
12.49336851861733
 21
14.38209313181567
 31
0.0
  0
LINE
  5
78A
330
22
100
AcDbEntity
  8
0
 62
     0
 48
0.2
100
AcDbLine
 10
12.50661258340392
 20
14.37203626182857
 30
0.0
 11
12.53766186631242
 21
14.34845901372223
 31
0.0
  0
LINE
  5
78B
330
22
100
AcDbEntity
  8
0
 62
     0
 48
0.2
100
AcDbLine
 10
12.23829922611753
 20
14.43658643717434
 30
0.0
 11
12.26625872560373
 21
14.41535541363497
 31
0.0
  0
LINE
  5
78C
330
22
100
AcDbEntity
  8
0
 62
     0
 48
0.2
100
AcDbLine
 10
12.27950279038998
 20
14.40529854364793
 30
0.0
 11
12.31055207329848
 21
14.3817212955416
 31
0.0
  0
LINE
  5
78D
330
22
100
AcDbEntity
  8
0
 62
     0
 48
0.2
100
AcDbLine
 10
12.32379613808507
 20
14.3716644255545
 30
0.0
 11
12.35484542099346
 21
14.34808717744818
 31
0.0
  0
LINE
  5
78E
330
22
100
AcDbEntity
  8
0
 62
     0
 48
0.2
100
AcDbLine
 10
12.36808948577971
 20
14.33803030746108
 30
0.0
 11
12.3991387686882
 21
14.31445305935478
 31
0.0
  0
LINE
  5
78F
330
22
100
AcDbEntity
  8
0
 62
     0
 48
0.2
100
AcDbLine
 10
12.41238283347468
 20
14.30439618936768
 30
0.0
 11
12.44343211638318
 21
14.28081894126139
 31
0.0
  0
LINE
  5
790
330
22
100
AcDbEntity
  8
0
 62
     0
 48
0.2
100
AcDbLine
 10
12.45667618116943
 20
14.27076207127429
 30
0.0
 11
12.48772546407827
 21
14.24718482316796
 31
0.0
  0
LINE
  5
791
330
22
100
AcDbEntity
  8
0
 62
     0
 48
0.2
100
AcDbLine
 10
12.48741860150653
 20
14.19739901836523
 30
0.0
 11
12.45637832687999
 21
14.22243778258526
 31
0.0
  0
LINE
  5
792
330
22
100
AcDbEntity
  8
0
 62
     0
 48
0.2
100
AcDbLine
 10
12.44313810457493
 20
14.23311806194877
 30
0.0
 11
12.41209782994883
 21
14.25815682616881
 31
0.0
  0
LINE
  5
793
330
22
100
AcDbEntity
  8
0
 62
     0
 48
0.2
100
AcDbLine
 10
12.39885760764332
 20
14.26883710553233
 30
0.0
 11
12.36781733301723
 21
14.29387586975238
 31
0.0
  0
LINE
  5
794
330
22
100
AcDbEntity
  8
0
 62
     0
 48
0.2
100
AcDbLine
 10
12.35457711071172
 20
14.30455614911591
 30
0.0
 11
12.32353683608562
 21
14.32959491333592
 31
0.0
  0
LINE
  5
795
330
22
100
AcDbEntity
  8
0
 62
     0
 48
0.2
100
AcDbLine
 10
12.31029661378045
 20
14.34027519269944
 30
0.0
 11
12.27925633915436
 21
14.36531395691949
 31
0.0
  0
LINE
  5
796
330
22
100
AcDbEntity
  8
0
 62
     0
 48
0.2
100
AcDbLine
 10
12.26601611684885
 20
14.37599423628299
 30
0.0
 11
12.23806472921103
 21
14.39854133720652
 31
0.0
  0
LINE
  5
797
330
22
100
AcDbEntity
  8
0
 62
     0
 48
0.2
100
AcDbLine
 10
12.4266422321889
 20
14.49770390850637
 30
0.0
 11
12.47870270944429
 21
14.53877690863852
 31
0.0
  0
LINE
  5
798
330
22
100
AcDbEntity
  8
0
 62
     0
 48
0.2
100
AcDbLine
 10
12.47870270944429
 20
14.53877690863852
 30
0.0
 11
12.54289972648485
 21
14.49034003802434
 31
0.0
  0
LINE
  5
799
330
22
100
AcDbEntity
  8
0
 62
     0
 48
0.2
100
AcDbLine
 10
12.54289972648485
 20
14.49034003802434
 30
0.0
 11
12.49125116101425
 21
14.44864317015399
 31
0.0
  0
LINE
  5
79A
330
22
100
AcDbEntity
  8
0
 62
     0
 48
0.2
100
AcDbLine
 10
12.54155051135626
 20
14.48097932865883
 30
0.0
 11
12.59055659000944
 21
14.44159744315878
 31
0.0
  0
LINE
  5
79B
330
22
100
AcDbEntity
  8
0
 62
     0
 48
0.2
100
AcDbLine
 10
12.59055659000944
 20
14.44159744315878
 30
0.0
 11
12.57774991082056
 21
14.43125836781107
 31
0.0
  0
LINE
  5
79C
330
22
100
AcDbEntity
  8
0
 62
     0
 48
0.2
100
AcDbLine
 10
12.54155051135626
 20
14.48097932865883
 30
0.0
 11
12.49653081270355
 21
14.44463407087291
 31
0.0
  0
ELLIPSE
  5
79D
330
22
100
AcDbEntity
  8
0
 62
     0
 48
0.2
100
AcDbEllipse
 10
12.97292432901429
 20
14.6268788030454
 30
0.0
 11
-0.01583042861026679
 21
-0.0001882014590351957
 31
0.0
210
0.0
220
0.0
230
1.0
 40
0.5962677318147258
 41
0.0
 42
6.283185307179586
  0
ELLIPSE
  5
79E
330
22
100
AcDbEntity
  8
0
 62
     0
 48
0.2
100
AcDbEllipse
 10
12.48926439292336
 20
14.18275934564984
 30
0.0
 11
-0.01583042861026679
 21
-0.0001882014590351957
 31
0.0
210
0.0
220
0.0
230
1.0
 40
0.5962677318147258
 41
0.0
 42
6.283185307179586
  0
ELLIPSE
  5
79F
330
22
100
AcDbEntity
  8
0
 62
     0
 48
0.2
100
AcDbEllipse
 10
12.21754790851958
 20
14.38587511814916
 30
0.0
 11
-0.01583042861026679
 21
-0.0001882014590351957
 31
0.0
210
0.0
220
0.0
230
1.0
 40
0.5962677318147258
 41
0.0
 42
6.283185307179586
  0
ELLIPSE
  5
7A0
330
22
100
AcDbEntity
  8
0
 62
     0
 48
0.2
100
AcDbEllipse
 10
12.54605805665085
 20
14.53981470334435
 30
0.0
 11
-0.03469518999770279
 21
0.04404257501437865
 31
0.0
210
0.0
220
0.0
230
1.0
 40
0.8703029043953748
 41
2.737386404719092
 42
7.573421350179723
  0
ELLIPSE
  5
7A1
330
22
100
AcDbEntity
  8
0
 62
     0
 48
0.2
100
AcDbEllipse
 10
12.54605805665085
 20
14.53981470334435
 30
0.0
 11
-0.03469518999770279
 21
0.04404257501437865
 31
0.0
210
0.0
220
0.0
230
1.0
 40
0.8703029043953748
 41
8.627991785196858
 42
8.79861423667299
  0
LWPOLYLINE
  5
7A2
330
22
100
AcDbEntity
  8
0
 62
     0
 48
0.2
100
AcDbPolyline
 90
        2
 70
     0
 43
0.0
 10
12.55170777346336
 20
14.47281682832654
 10
12.55170777346336
 20
14.48643212514749
  0
LWPOLYLINE
  5
7A3
330
22
100
AcDbEntity
  8
0
 62
     0
 48
0.2
100
AcDbPolyline
 90
        3
 70
     0
 43
0.0
 10
12.56288240897868
 20
14.48744581340672
 10
12.56288240897868
 20
14.47012299627808
 10
12.5550599274693
 20
14.47012299627808
  0
LWPOLYLINE
  5
7A4
330
22
100
AcDbEntity
  8
0
 62
     0
 48
0.2
100
AcDbPolyline
 90
        4
 70
     1
 43
0.0
 10
12.38878916018234
 20
14.65485683060734
 10
12.43003030273087
 20
14.62671468138446
 10
12.43003030273087
 20
14.53954269081028
 10
12.38878916018234
 20
14.56768484003319
  0
LINE
  5
7A5
330
22
100
AcDbEntity
  8
0
 62
     0
 48
0.2
100
AcDbLine
 10
12.3668225632897
 20
14.54312792616967
 30
0.0
 11
12.3668225632897
 21
14.54312792616967
 31
0.0
  0
LINE
  5
7A6
330
22
100
AcDbEntity
  8
0
 62
     0
 48
0.2
100
AcDbLine
 10
12.49112566922395
 20
14.67500091948385
 30
0.0
 11
12.43003030273087
 21
14.62011498842432
 31
0.0
  0
LINE
  5
7A7
330
22
100
AcDbEntity
  8
0
 62
     0
 48
0.2
100
AcDbLine
 10
12.49112566922395
 20
14.67500091948385
 30
0.0
 11
12.56492939539032
 21
14.62519172333911
 31
0.0
  0
LINE
  5
7A8
330
22
100
AcDbEntity
  8
0
 62
     0
 48
0.2
100
AcDbLine
 10
12.56492939539032
 20
14.62519172333911
 30
0.0
 11
12.51826206643148
 21
14.58828695451925
 31
0.0
  0
LINE
  5
7A9
330
22
100
AcDbEntity
  8
0
 62
     0
 48
0.2
100
AcDbLine
 10
12.50533690460657
 20
14.57806566867012
 30
0.0
 11
12.48651997887509
 21
14.56318514498221
 31
0.0
  0
LINE
  5
7AA
330
22
100
AcDbEntity
  8
0
 62
     0
 48
0.2
100
AcDbLine
 10
12.43003030273087
 20
14.60130930896915
 30
0.0
 11
12.48651997887509
 21
14.56318514498221
 31
0.0
  0
LINE
  5
7AB
330
22
100
AcDbEntity
  8
0
 62
     0
 48
0.2
100
AcDbLine
 10
12.68005284916637
 20
14.43069384302618
 30
0.0
 11
12.70468543373534
 21
14.41326296769658
 31
0.0
  0
LINE
  5
7AC
330
22
100
AcDbEntity
  8
0
 62
     0
 48
0.2
100
AcDbLine
 10
12.70468543373534
 20
14.41326296769658
 30
0.0
 11
12.70391491121654
 21
14.3912094846075
 31
0.0
  0
LINE
  5
7AD
330
22
100
AcDbEntity
  8
0
 62
     0
 48
0.2
100
AcDbLine
 10
12.68005284916637
 20
14.41241310709368
 30
0.0
 11
12.68005284916637
 21
14.43069384302618
 31
0.0
  0
LINE
  5
7AE
330
22
100
AcDbEntity
  8
0
 62
     0
 48
0.2
100
AcDbLine
 10
12.68995741174274
 20
14.40115474716004
 30
0.0
 11
12.70391491121654
 21
14.3912094846075
 31
0.0
  0
LINE
  5
7AF
330
22
100
AcDbEntity
  8
0
 62
     0
 48
0.2
100
AcDbLine
 10
12.71147749364923
 20
14.45768136593021
 30
0.0
 11
12.73611007821808
 21
14.44025049060065
 31
0.0
  0
LINE
  5
7B0
330
22
100
AcDbEntity
  8
0
 62
     0
 48
0.2
100
AcDbLine
 10
12.73611007821808
 20
14.44025049060065
 30
0.0
 11
12.7353395556994
 21
14.41819700751155
 31
0.0
  0
LINE
  5
7B1
330
22
100
AcDbEntity
  8
0
 62
     0
 48
0.2
100
AcDbLine
 10
12.70391491121654
 20
14.3912094846075
 30
0.0
 11
12.7353395556994
 21
14.41819700751155
 31
0.0
  0
LINE
  5
7B2
330
22
100
AcDbEntity
  8
0
 62
     0
 48
0.2
100
AcDbLine
 10
12.70468543373534
 20
14.41326296769658
 30
0.0
 11
12.73611007821808
 21
14.44025049060065
 31
0.0
  0
LINE
  5
7B3
330
22
100
AcDbEntity
  8
0
 62
     0
 48
0.2
100
AcDbLine
 10
12.68005284916637
 20
14.43069384302618
 30
0.0
 11
12.71147749364923
 21
14.45768136593021
 31
0.0
  0
ELLIPSE
  5
7B4
330
22
100
AcDbEntity
  8
0
 62
     0
 48
0.2
100
AcDbEllipse
 10
12.67967919836371
 20
14.39250379605146
 30
0.0
 11
-0.007714204700683078
 21
0.0008108872009867732
 31
0.0
210
0.0
220
0.0
230
1.0
 40
0.5851908371889885
 41
0.0669824399422032
 42
3.338165011577294
  0
ELLIPSE
  5
7B5
330
22
100
AcDbEntity
  8
0
 62
     0
 48
0.2
100
AcDbEllipse
 10
12.69049797052469
 20
14.41151383791801
 30
0.0
 11
-0.005657952801547929
 21
0.003852321773671183
 31
0.0
210
0.0
220
0.0
230
1.0
 40
0.8124693811970644
 41
2.776862512367889
 42
6.05430574608337
  0
ARC
  5
7B6
330
22
100
AcDbEntity
  8
0
 62
     0
 48
0.2
100
AcDbCircle
 10
12.69695188940477
 20
14.39396323897637
 30
0.0
 40
0.0250194962883542
100
AcDbArc
 50
116.7319280647828
 51
182.1818542400207
  0
ARC
  5
7B7
330
22
100
AcDbEntity
  8
0
 62
     0
 48
0.2
100
AcDbCircle
 10
12.70528408671964
 20
14.39178333704459
 30
0.0
 40
0.0179646957504392
100
AcDbArc
 50
126.2265495534332
 51
181.4982306261567
  0
ELLIPSE
  5
7B8
330
22
100
AcDbEntity
  8
0
 62
     0
 48
0.2
100
AcDbEllipse
 10
12.74183792253689
 20
14.44874383672018
 30
0.0
 11
-0.00712990704265118
 21
0.0004449857504263988
 31
0.0
210
0.0
220
0.0
230
1.0
 40
0.586886413119717
 41
1.256309192963712
 42
4.382117864180249
  0
ARC
  5
7B9
330
22
100
AcDbEntity
  8
0
 62
     0
 48
0.2
100
AcDbCircle
 10
12.7359116430639
 20
14.42824432084056
 30
0.0
 40
0.0257517162007686
100
AcDbArc
 50
70.76073056240675
 51
122.0698500836268
  0
ARC
  5
7BA
330
22
100
AcDbEntity
  8
0
 62
     0
 48
0.2
100
AcDbCircle
 10
12.73867822860313
 20
14.43252952866354
 30
0.0
 40
0.0123928531112393
100
AcDbArc
 50
86.73483308789763
 51
121.8317372281139
  0
LINE
  5
7BB
330
22
100
AcDbEntity
  8
0
 62
     0
 48
0.2
100
AcDbLine
 10
12.60036016214792
 20
14.3627363719374
 30
0.0
 11
12.62499274671688
 21
14.34530549660785
 31
0.0
  0
LINE
  5
7BC
330
22
100
AcDbEntity
  8
0
 62
     0
 48
0.2
100
AcDbLine
 10
12.62499274671688
 20
14.34530549660785
 30
0.0
 11
12.62422222419855
 21
14.32325201351877
 31
0.0
  0
LINE
  5
7BD
330
22
100
AcDbEntity
  8
0
 62
     0
 48
0.2
100
AcDbLine
 10
12.60036016214792
 20
14.34445563600494
 30
0.0
 11
12.60036016214792
 21
14.3627363719374
 31
0.0
  0
LINE
  5
7BE
330
22
100
AcDbEntity
  8
0
 62
     0
 48
0.2
100
AcDbLine
 10
12.61026472472429
 20
14.33319727607127
 30
0.0
 11
12.62422222419855
 21
14.32325201351877
 31
0.0
  0
LINE
  5
7BF
330
22
100
AcDbEntity
  8
0
 62
     0
 48
0.2
100
AcDbLine
 10
12.63178480663112
 20
14.38972389484145
 30
0.0
 11
12.65641739119962
 21
14.37229301951189
 31
0.0
  0
LINE
  5
7C0
330
22
100
AcDbEntity
  8
0
 62
     0
 48
0.2
100
AcDbLine
 10
12.65641739119962
 20
14.37229301951189
 30
0.0
 11
12.65564686868129
 21
14.35023953642278
 31
0.0
  0
LINE
  5
7C1
330
22
100
AcDbEntity
  8
0
 62
     0
 48
0.2
100
AcDbLine
 10
12.62422222419855
 20
14.32325201351877
 30
0.0
 11
12.65564686868129
 21
14.35023953642278
 31
0.0
  0
LINE
  5
7C2
330
22
100
AcDbEntity
  8
0
 62
     0
 48
0.2
100
AcDbLine
 10
12.62499274671688
 20
14.34530549660785
 30
0.0
 11
12.65641739119962
 21
14.37229301951189
 31
0.0
  0
LINE
  5
7C3
330
22
100
AcDbEntity
  8
0
 62
     0
 48
0.2
100
AcDbLine
 10
12.60036016214792
 20
14.3627363719374
 30
0.0
 11
12.63178480663112
 21
14.38972389484145
 31
0.0
  0
ELLIPSE
  5
7C4
330
22
100
AcDbEntity
  8
0
 62
     0
 48
0.2
100
AcDbEllipse
 10
12.59998651134561
 20
14.32454632496268
 30
0.0
 11
-0.007714204700683078
 21
0.0008108872009867732
 31
0.0
210
0.0
220
0.0
230
1.0
 40
0.5851908371889885
 41
0.9333261964810532
 42
3.338165011577294
  0
ELLIPSE
  5
7C5
330
22
100
AcDbEntity
  8
0
 62
     0
 48
0.2
100
AcDbEllipse
 10
12.61080528350658
 20
14.34355636682928
 30
0.0
 11
-0.005657952801547929
 21
0.003852321773671183
 31
0.0
210
0.0
220
0.0
230
1.0
 40
0.8124693811970644
 41
2.776862512367889
 42
6.05430574608337
  0
ARC
  5
7C6
330
22
100
AcDbEntity
  8
0
 62
     0
 48
0.2
100
AcDbCircle
 10
12.61725920238632
 20
14.32600576788762
 30
0.0
 40
0.0250194962883542
100
AcDbArc
 50
116.7319280647828
 51
166.8249730698056
  0
ARC
  5
7C7
330
22
100
AcDbEntity
  8
0
 62
     0
 48
0.2
100
AcDbCircle
 10
12.62559139970153
 20
14.32382586595583
 30
0.0
 40
0.0179646957504392
100
AcDbArc
 50
126.2265495534332
 51
181.4982306261567
  0
ELLIPSE
  5
7C8
330
22
100
AcDbEntity
  8
0
 62
     0
 48
0.2
100
AcDbEllipse
 10
12.66214523551844
 20
14.38078636563144
 30
0.0
 11
-0.00712990704265118
 21
0.0004449857504263988
 31
0.0
210
0.0
220
0.0
230
1.0
 40
0.586886413119717
 41
1.256309192963712
 42
4.382117864180249
  0
ARC
  5
7C9
330
22
100
AcDbEntity
  8
0
 62
     0
 48
0.2
100
AcDbCircle
 10
12.65621895604545
 20
14.3602868497518
 30
0.0
 40
0.0257517162007686
100
AcDbArc
 50
70.76073056240675
 51
122.0698500836268
  0
ARC
  5
7CA
330
22
100
AcDbEntity
  8
0
 62
     0
 48
0.2
100
AcDbCircle
 10
12.65898554158503
 20
14.36457205757479
 30
0.0
 40
0.0123928531112393
100
AcDbArc
 50
86.73483308736914
 51
121.8317372281139
  0
LINE
  5
7CB
330
22
100
AcDbEntity
  8
0
 62
     0
 48
0.2
100
AcDbLine
 10
12.64781753171883
 20
14.45483660533812
 30
0.0
 11
12.67245011628779
 21
14.43740573000854
 31
0.0
  0
LINE
  5
7CC
330
22
100
AcDbEntity
  8
0
 62
     0
 48
0.2
100
AcDbLine
 10
12.67245011628779
 20
14.43740573000854
 30
0.0
 11
12.67167959376945
 21
14.41535224691945
 31
0.0
  0
LINE
  5
7CD
330
22
100
AcDbEntity
  8
0
 62
     0
 48
0.2
100
AcDbLine
 10
12.64781753171883
 20
14.43655586940561
 30
0.0
 11
12.64781753171883
 21
14.45483660533812
 31
0.0
  0
LINE
  5
7CE
330
22
100
AcDbEntity
  8
0
 62
     0
 48
0.2
100
AcDbLine
 10
12.6577220942952
 20
14.42529750947196
 30
0.0
 11
12.67167959376945
 21
14.41535224691945
 31
0.0
  0
LINE
  5
7CF
330
22
100
AcDbEntity
  8
0
 62
     0
 48
0.2
100
AcDbLine
 10
12.67924217620202
 20
14.48182412824214
 30
0.0
 11
12.70387476077065
 21
14.4643932529126
 31
0.0
  0
LINE
  5
7D0
330
22
100
AcDbEntity
  8
0
 62
     0
 48
0.2
100
AcDbLine
 10
12.70387476077065
 20
14.4643932529126
 30
0.0
 11
12.70339782082522
 21
14.45074253308155
 31
0.0
  0
LINE
  5
7D1
330
22
100
AcDbEntity
  8
0
 62
     0
 48
0.2
100
AcDbLine
 10
12.67167959376945
 20
14.41535224691945
 30
0.0
 11
12.68005284916637
 21
14.42254320883886
 31
0.0
  0
LINE
  5
7D2
330
22
100
AcDbEntity
  8
0
 62
     0
 48
0.2
100
AcDbLine
 10
12.67245011628779
 20
14.43740573000854
 30
0.0
 11
12.70387476077065
 21
14.4643932529126
 31
0.0
  0
LINE
  5
7D3
330
22
100
AcDbEntity
  8
0
 62
     0
 48
0.2
100
AcDbLine
 10
12.64781753171883
 20
14.45483660533812
 30
0.0
 11
12.67924217620202
 21
14.48182412824214
 31
0.0
  0
ELLIPSE
  5
7D4
330
22
100
AcDbEntity
  8
0
 62
     0
 48
0.2
100
AcDbEllipse
 10
12.64744388091617
 20
14.4166465583634
 30
0.0
 11
-0.007714204700683078
 21
0.0008108872009867732
 31
0.0
210
0.0
220
0.0
230
1.0
 40
0.5851908371889885
 41
0.0669824399422032
 42
3.338165011577294
  0
ELLIPSE
  5
7D5
330
22
100
AcDbEntity
  8
0
 62
     0
 48
0.2
100
AcDbEllipse
 10
12.65826265307749
 20
14.43565660022996
 30
0.0
 11
-0.005657952801547929
 21
0.003852321773671183
 31
0.0
210
0.0
220
0.0
230
1.0
 40
0.8124693811970644
 41
2.776862512367889
 42
6.05430574608337
  0
ARC
  5
7D6
330
22
100
AcDbEntity
  8
0
 62
     0
 48
0.2
100
AcDbCircle
 10
12.66471657195723
 20
14.41810600128831
 30
0.0
 40
0.0250194962883542
100
AcDbArc
 50
116.7319280647828
 51
182.1818542400207
  0
ARC
  5
7D7
330
22
100
AcDbEntity
  8
0
 62
     0
 48
0.2
100
AcDbCircle
 10
12.67304876927255
 20
14.41592609935651
 30
0.0
 40
0.0179646957504392
100
AcDbArc
 50
126.2265495534332
 51
181.4982306261567
  0
ELLIPSE
  5
7D8
330
22
100
AcDbEntity
  8
0
 62
     0
 48
0.2
100
AcDbEllipse
 10
12.70960260508934
 20
14.47288659903214
 30
0.0
 11
-0.00712990704265118
 21
0.0004449857504263988
 31
0.0
210
0.0
220
0.0
230
1.0
 40
0.586886413119717
 41
1.256309192963712
 42
4.382117864180249
  0
ARC
  5
7D9
330
22
100
AcDbEntity
  8
0
 62
     0
 48
0.2
100
AcDbCircle
 10
12.7036763256167
 20
14.45238708315249
 30
0.0
 40
0.0257517162007686
100
AcDbArc
 50
70.76073056240675
 51
122.0698500833285
  0
ARC
  5
7DA
330
22
100
AcDbEntity
  8
0
 62
     0
 48
0.2
100
AcDbCircle
 10
12.70644291115593
 20
14.45667229097549
 30
0.0
 40
0.0123928531112393
100
AcDbArc
 50
86.73483308736914
 51
121.8317372281139
  0
LINE
  5
7DB
330
22
100
AcDbEntity
  8
0
 62
     0
 48
0.2
100
AcDbLine
 10
12.58385903250291
 20
14.37574507459652
 30
0.0
 11
12.59275742926968
 21
14.36944825891979
 31
0.0
  0
LINE
  5
7DC
330
22
100
AcDbEntity
  8
0
 62
     0
 48
0.2
100
AcDbLine
 10
12.59275742926968
 20
14.36944825891979
 30
0.0
 11
12.591986906751
 21
14.34739477583071
 31
0.0
  0
LINE
  5
7DD
330
22
100
AcDbEntity
  8
0
 62
     0
 48
0.2
100
AcDbLine
 10
12.58928288990103
 20
14.34932149326096
 30
0.0
 11
12.591986906751
 21
14.34739477583071
 31
0.0
  0
LINE
  5
7DE
330
22
100
AcDbEntity
  8
0
 62
     0
 48
0.2
100
AcDbLine
 10
12.59954948918357
 20
14.41386665715339
 30
0.0
 11
12.62418207375254
 21
14.39643578182384
 31
0.0
  0
LINE
  5
7DF
330
22
100
AcDbEntity
  8
0
 62
     0
 48
0.2
100
AcDbLine
 10
12.62418207375254
 20
14.39643578182384
 30
0.0
 11
12.62370513380711
 21
14.38278506199278
 31
0.0
  0
LINE
  5
7E0
330
22
100
AcDbEntity
  8
0
 62
     0
 48
0.2
100
AcDbLine
 10
12.591986906751
 20
14.34739477583071
 30
0.0
 11
12.60036016214792
 21
14.35458573775009
 31
0.0
  0
LINE
  5
7E1
330
22
100
AcDbEntity
  8
0
 62
     0
 48
0.2
100
AcDbLine
 10
12.59275742926968
 20
14.36944825891979
 30
0.0
 11
12.62418207375254
 21
14.39643578182384
 31
0.0
  0
LINE
  5
7E2
330
22
100
AcDbEntity
  8
0
 62
     0
 48
0.2
100
AcDbLine
 10
12.57021986982363
 20
14.38867834437313
 30
0.0
 11
12.59954948918357
 21
14.41386665715339
 31
0.0
  0
ELLIPSE
  5
7E3
330
22
100
AcDbEntity
  8
0
 62
     0
 48
0.2
100
AcDbEllipse
 10
12.62990991807135
 20
14.40492912794336
 30
0.0
 11
-0.00712990704265118
 21
0.0004449857504263988
 31
0.0
210
0.0
220
0.0
230
1.0
 40
0.586886413119717
 41
1.256309192963712
 42
4.382117864180249
  0
ARC
  5
7E4
330
22
100
AcDbEntity
  8
0
 62
     0
 48
0.2
100
AcDbCircle
 10
12.62398363859825
 20
14.38442961206376
 30
0.0
 40
0.0257517162007686
100
AcDbArc
 50
70.76073056240675
 51
122.0698500833285
  0
ARC
  5
7E5
330
22
100
AcDbEntity
  8
0
 62
     0
 48
0.2
100
AcDbCircle
 10
12.62675022413748
 20
14.38871481988674
 30
0.0
 40
0.0123928531112393
100
AcDbArc
 50
86.73483308736914
 51
121.8317372281139
  0
LINE
  5
7E6
330
22
100
AcDbEntity
  8
0
 62
     0
 48
0.2
100
AcDbLine
 10
12.61647764928864
 20
14.47897936765007
 30
0.0
 11
12.6411102338576
 21
14.46154849232049
 31
0.0
  0
LINE
  5
7E7
330
22
100
AcDbEntity
  8
0
 62
     0
 48
0.2
100
AcDbLine
 10
12.6411102338576
 20
14.46154849232049
 30
0.0
 11
12.64033971133892
 21
14.43949500923141
 31
0.0
  0
LINE
  5
7E8
330
22
100
AcDbEntity
  8
0
 62
     0
 48
0.2
100
AcDbLine
 10
12.61647764928864
 20
14.46069863171755
 30
0.0
 11
12.61647764928864
 21
14.47897936765007
 31
0.0
  0
LINE
  5
7E9
330
22
100
AcDbEntity
  8
0
 62
     0
 48
0.2
100
AcDbLine
 10
12.62638221186512
 20
14.44944027178391
 30
0.0
 11
12.64033971133892
 21
14.43949500923141
 31
0.0
  0
LINE
  5
7EA
330
22
100
AcDbEntity
  8
0
 62
     0
 48
0.2
100
AcDbLine
 10
12.64790229377149
 20
14.50596689055409
 30
0.0
 11
12.67253487834046
 21
14.48853601522455
 31
0.0
  0
LINE
  5
7EB
330
22
100
AcDbEntity
  8
0
 62
     0
 48
0.2
100
AcDbLine
 10
12.67253487834046
 20
14.48853601522455
 30
0.0
 11
12.67208563749091
 21
14.47567808409255
 31
0.0
  0
LINE
  5
7EC
330
22
100
AcDbEntity
  8
0
 62
     0
 48
0.2
100
AcDbLine
 10
12.64033971133892
 20
14.43949500923141
 30
0.0
 11
12.64781753171883
 21
14.44591697046904
 31
0.0
  0
LINE
  5
7ED
330
22
100
AcDbEntity
  8
0
 62
     0
 48
0.2
100
AcDbLine
 10
12.6411102338576
 20
14.46154849232049
 30
0.0
 11
12.67253487834046
 21
14.48853601522455
 31
0.0
  0
LINE
  5
7EE
330
22
100
AcDbEntity
  8
0
 62
     0
 48
0.2
100
AcDbLine
 10
12.61647764928864
 20
14.47897936765007
 30
0.0
 11
12.64790229377149
 21
14.50596689055409
 31
0.0
  0
ELLIPSE
  5
7EF
330
22
100
AcDbEntity
  8
0
 62
     0
 48
0.2
100
AcDbEllipse
 10
12.61610399848598
 20
14.44078932067535
 30
0.0
 11
-0.007714204700683078
 21
0.0008108872009867732
 31
0.0
210
0.0
220
0.0
230
1.0
 40
0.5851908371889885
 41
0.0669824399422032
 42
3.338165011577294
  0
ELLIPSE
  5
7F0
330
22
100
AcDbEntity
  8
0
 62
     0
 48
0.2
100
AcDbEllipse
 10
12.62692277064696
 20
14.45979936254192
 30
0.0
 11
-0.005657952801547929
 21
0.003852321773671183
 31
0.0
210
0.0
220
0.0
230
1.0
 40
0.8124693811970644
 41
2.776862512367889
 42
6.05430574608337
  0
ARC
  5
7F1
330
22
100
AcDbEntity
  8
0
 62
     0
 48
0.2
100
AcDbCircle
 10
12.63337668952704
 20
14.44224876360026
 30
0.0
 40
0.0250194962883542
100
AcDbArc
 50
116.7319280647828
 51
182.1818542400207
  0
ARC
  5
7F2
330
22
100
AcDbEntity
  8
0
 62
     0
 48
0.2
100
AcDbCircle
 10
12.64170888684203
 20
14.44006886166846
 30
0.0
 40
0.0179646957504392
100
AcDbArc
 50
126.2265495534332
 51
181.4982306261567
  0
LINE
  5
7F3
330
22
100
AcDbEntity
  8
0
 62
     0
 48
0.2
100
AcDbLine
 10
12.56820960675304
 20
14.43800941946535
 30
0.0
 11
12.59284219132201
 21
14.42057854413578
 31
0.0
  0
LINE
  5
7F4
330
22
100
AcDbEntity
  8
0
 62
     0
 48
0.2
100
AcDbLine
 10
12.59284219132201
 20
14.42057854413578
 30
0.0
 11
12.5923929504728
 21
14.4077206130038
 31
0.0
  0
LINE
  5
7F5
330
22
100
AcDbEntity
  8
0
 62
     0
 48
0.2
100
AcDbLine
 10
12.56251222878745
 20
14.39453113542027
 30
0.0
 11
12.59284219132201
 21
14.42057854413578
 31
0.0
  0
LINE
  5
7F6
330
22
100
AcDbEntity
  8
0
 62
     0
 48
0.2
100
AcDbLine
 10
12.53866687513334
 20
14.41263808561726
 30
0.0
 11
12.56820960675304
 21
14.43800941946535
 31
0.0
  0
ELLIPSE
  5
7F7
330
22
100
AcDbEntity
  8
0
 62
     0
 48
0.2
100
AcDbEllipse
 10
12.59857003564082
 20
14.42907189025532
 30
0.0
 11
-0.00712990704265118
 21
0.0004449857504263988
 31
0.0
210
0.0
220
0.0
230
1.0
 40
0.586886413119717
 41
1.256309192963712
 42
4.382117864180249
  0
ARC
  5
7F8
330
22
100
AcDbEntity
  8
0
 62
     0
 48
0.2
100
AcDbCircle
 10
12.59264375616806
 20
14.40857237437569
 30
0.0
 40
0.0257517162007686
100
AcDbArc
 50
70.76073056213669
 51
122.0698500833285
  0
ARC
  5
7F9
330
22
100
AcDbEntity
  8
0
 62
     0
 48
0.2
100
AcDbCircle
 10
12.59541034170741
 20
14.4128575821987
 30
0.0
 40
0.0123928531112393
100
AcDbArc
 50
86.73483308789763
 51
121.8317372287338
  0
LINE
  5
7FA
330
22
100
AcDbEntity
  8
0
 62
     0
 48
0.2
100
AcDbLine
 10
12.54289972648485
 20
14.49034003802434
 30
0.0
 11
12.54289972648485
 21
14.4798950828435
 31
0.0
  0
LINE
  5
7FB
330
22
100
AcDbEntity
  8
0
 62
     0
 48
0.2
100
AcDbLine
 10
12.56492939539032
 20
14.62519172333911
 30
0.0
 11
12.56492939539032
 21
14.62519172333911
 31
0.0
  0
LINE
  5
7FC
330
22
100
AcDbEntity
  8
0
 62
     0
 48
0.2
100
AcDbLine
 10
12.56492939539032
 20
14.62519172333911
 30
0.0
 11
12.56492939539032
 21
14.58646276553463
 31
0.0
  0
LWPOLYLINE
  5
7FD
330
22
100
AcDbEntity
  8
0
 62
     0
 48
0.2
100
AcDbPolyline
 90
        3
 70
     0
 43
0.0
 10
12.40984249986298
 20
14.51082142769937
 42
0.1515038686196725
 10
12.40673016405276
 20
14.53799119958174
 42
-0.1993472209003683
 10
12.40058228351688
 20
14.55963744327879
 42
-0.1993472209003683
  0
LWPOLYLINE
  5
7FE
330
22
100
AcDbEntity
  8
0
 62
     0
 48
0.2
100
AcDbPolyline
 90
        3
 70
     0
 43
0.0
 10
12.40520604669973
 20
14.51434211469501
 42
0.1315343316124805
 10
12.40228065100507
 20
14.53536268429892
 42
-0.2139279344422919
 10
12.39589653909138
 20
14.56283490364716
  0
LWPOLYLINE
  5
7FF
330
22
100
AcDbEntity
  8
0
 62
     0
 48
0.2
100
AcDbPolyline
 90
        3
 70
     0
 43
0.0
 10
12.42623257706191
 20
14.49837563570674
 42
0.1515038686196725
 10
12.42312024125147
 20
14.52554540758908
 42
-0.2096819154882305
 10
12.41713094429849
 20
14.54834496076322
 42
-0.1993472209003683
  0
LWPOLYLINE
  5
800
330
22
100
AcDbEntity
  8
0
 62
     0
 48
0.2
100
AcDbPolyline
 90
        3
 70
     0
 43
0.0
 10
12.42159612389878
 20
14.50189632270239
 42
0.1315343316124805
 10
12.41867072820401
 20
14.52291689230626
 42
-0.2224864376783489
 10
12.41252086573422
 20
14.55149078822741
  0
LINE
  5
801
330
22
100
AcDbEntity
  8
0
 62
     0
 48
0.2
100
AcDbLine
 10
12.48651997887509
 20
14.56318514498221
 30
0.0
 11
12.48651997887509
 21
14.54835188361487
 31
0.0
  0
LINE
  5
802
330
22
100
AcDbEntity
  8
0
 62
     0
 48
0.2
100
AcDbLine
 10
12.49497215360122
 20
14.55503590777616
 30
0.0
 11
12.48651997887509
 21
14.54835188361487
 31
0.0
  0
LINE
  5
803
330
22
100
AcDbEntity
  8
0
 62
     0
 48
0.2
100
AcDbLine
 10
12.43003030273087
 20
14.58647604760181
 30
0.0
 11
12.48651997887509
 21
14.54835188361487
 31
0.0
  0
LWPOLYLINE
  5
804
330
22
100
AcDbEntity
  8
0
 62
     0
 48
0.2
100
AcDbPolyline
 90
        4
 70
     1
 43
0.0
 10
12.73160529445624
 20
14.47614528791364
 10
12.83754145806677
 20
14.57213603075336
 10
12.84724561719929
 20
14.56752469335684
 10
12.74061544928816
 20
14.47090549686472
  0
LWPOLYLINE
  5
805
330
22
100
AcDbEntity
  8
0
 62
     0
 48
0.2
100
AcDbPolyline
 90
        4
 70
     1
 43
0.0
 10
12.76110912330216
 20
14.43563401529049
 10
12.86704528691268
 20
14.53162475813023
 10
12.87674944604532
 20
14.5270134207337
 10
12.77011927813419
 20
14.43039422424154
  0
LINE
  5
806
330
22
100
AcDbEntity
  8
0
 62
     0
 48
0.2
100
AcDbLine
 10
12.91061892608036
 20
14.75314759888245
 30
0.0
 11
12.77401217065074
 21
14.64593705880485
 31
0.0
  0
LINE
  5
807
330
22
100
AcDbEntity
  8
0
 62
     0
 48
0.2
100
AcDbLine
 10
12.92224445719717
 20
14.75294116519252
 30
0.0
 11
12.78499085826331
 21
14.6418818870283
 31
0.0
  0
LINE
  5
808
330
22
100
AcDbEntity
  8
0
 62
     0
 48
0.2
100
AcDbLine
 10
12.78499085826331
 20
14.6418818870283
 30
0.0
 11
12.77401217065074
 21
14.64593705880485
 31
0.0
  0
LINE
  5
809
330
22
100
AcDbEntity
  8
0
 62
     0
 48
0.2
100
AcDbLine
 10
12.90670968858274
 20
14.76244295562975
 30
0.0
 11
12.92224445719717
 21
14.75294116519252
 31
0.0
  0
LINE
  5
80A
330
22
100
AcDbEntity
  8
0
 62
     0
 48
0.2
100
AcDbLine
 10
12.90176582066715
 20
14.75844260586609
 30
0.0
 11
12.91061892608036
 21
14.75314759888245
 31
0.0
  0
LINE
  5
80B
330
22
100
AcDbEntity
  8
0
 62
     0
 48
0.2
100
AcDbLine
 10
12.77401217065074
 20
14.64593705880485
 30
0.0
 11
12.77242468378722
 21
14.56005373875894
 31
0.0
  0
LINE
  5
80C
330
22
100
AcDbEntity
  8
0
 62
     0
 48
0.2
100
AcDbLine
 10
12.78499085826331
 20
14.6418818870283
 30
0.0
 11
12.7834033713998
 21
14.5559985669824
 31
0.0
  0
LINE
  5
80D
330
22
100
AcDbEntity
  8
0
 62
     0
 48
0.2
100
AcDbLine
 10
12.92065697033365
 20
14.66705784514662
 30
0.0
 11
12.7834033713998
 21
14.5559985669824
 31
0.0
  0
LINE
  5
80E
330
22
100
AcDbEntity
  8
0
 62
     0
 48
0.2
100
AcDbLine
 10
12.7834033713998
 20
14.5559985669824
 30
0.0
 11
12.77242468378722
 21
14.56005373875894
 31
0.0
  0
LINE
  5
80F
330
22
100
AcDbEntity
  8
0
 62
     0
 48
0.2
100
AcDbLine
 10
12.92224445719717
 20
14.75294116519252
 30
0.0
 11
12.92065697033365
 21
14.66705784514662
 31
0.0
  0
LINE
  5
810
330
22
100
AcDbEntity
  8
0
 62
     0
 48
0.2
100
AcDbLine
 10
12.50661258340392
 20
14.37203626182857
 30
0.0
 11
12.45667618116943
 21
14.27076207127429
 31
0.0
  0
LINE
  5
811
330
22
100
AcDbEntity
  8
0
 62
     0
 48
0.2
100
AcDbLine
 10
12.45667618116943
 20
14.27076207127429
 30
0.0
 11
12.45637832687999
 21
14.22243778258526
 31
0.0
  0
LINE
  5
812
330
22
100
AcDbEntity
  8
0
 62
     0
 48
0.2
100
AcDbLine
 10
12.49336851861733
 20
14.38209313181567
 30
0.0
 11
12.44343211638318
 21
14.28081894126139
 31
0.0
  0
LINE
  5
813
330
22
100
AcDbEntity
  8
0
 62
     0
 48
0.2
100
AcDbLine
 10
12.44343211638318
 20
14.28081894126139
 30
0.0
 11
12.44313810457493
 21
14.23311806194877
 31
0.0
  0
LINE
  5
814
330
22
100
AcDbEntity
  8
0
 62
     0
 48
0.2
100
AcDbLine
 10
12.49336851861733
 20
14.38209313181567
 30
0.0
 11
12.50199809592618
 21
14.3878381774331
 31
0.0
  0
LINE
  5
815
330
22
100
AcDbEntity
  8
0
 62
     0
 48
0.2
100
AcDbLine
 10
12.50661258340392
 20
14.37203626182857
 30
0.0
 11
12.51524216071232
 21
14.37778130744599
 31
0.0
  0
LINE
  5
816
330
22
100
AcDbEntity
  8
0
 62
     0
 48
0.2
100
AcDbLine
 10
12.51524216071232
 20
14.37778130744599
 30
0.0
 11
12.50199809592618
 21
14.3878381774331
 31
0.0
  0
LINE
  5
817
330
22
100
AcDbEntity
  8
0
 62
     0
 48
0.2
100
AcDbLine
 10
12.44313810457493
 20
14.23311806194877
 30
0.0
 11
12.45649898127863
 21
14.24201291779251
 31
0.0
  0
LINE
  5
818
330
22
100
AcDbEntity
  8
0
 62
     0
 48
0.2
100
AcDbLine
 10
12.50199809592618
 20
14.3878381774331
 30
0.0
 11
12.50199809592618
 21
14.36267778858637
 31
0.0
  0
LINE
  5
819
330
22
100
AcDbEntity
  8
0
 62
     0
 48
0.2
100
AcDbLine
 10
12.46231923570895
 20
14.40567037992196
 30
0.0
 11
12.41238283347468
 21
14.30439618936768
 31
0.0
  0
LINE
  5
81A
330
22
100
AcDbEntity
  8
0
 62
     0
 48
0.2
100
AcDbLine
 10
12.41238283347468
 20
14.30439618936768
 30
0.0
 11
12.41209782994883
 21
14.25815682616881
 31
0.0
  0
LINE
  5
81B
330
22
100
AcDbEntity
  8
0
 62
     0
 48
0.2
100
AcDbLine
 10
12.4490751709227
 20
14.41572724990905
 30
0.0
 11
12.3991387686882
 21
14.31445305935478
 31
0.0
  0
LINE
  5
81C
330
22
100
AcDbEntity
  8
0
 62
     0
 48
0.2
100
AcDbLine
 10
12.3991387686882
 20
14.31445305935478
 30
0.0
 11
12.39885760764332
 21
14.26883710553233
 31
0.0
  0
LINE
  5
81D
330
22
100
AcDbEntity
  8
0
 62
     0
 48
0.2
100
AcDbLine
 10
12.4490751709227
 20
14.41572724990905
 30
0.0
 11
12.45770474823144
 21
14.42147229552647
 31
0.0
  0
LINE
  5
81E
330
22
100
AcDbEntity
  8
0
 62
     0
 48
0.2
100
AcDbLine
 10
12.46231923570895
 20
14.40567037992196
 30
0.0
 11
12.47094881301769
 21
14.41141542553942
 31
0.0
  0
LINE
  5
81F
330
22
100
AcDbEntity
  8
0
 62
     0
 48
0.2
100
AcDbLine
 10
12.47094881301769
 20
14.41141542553942
 30
0.0
 11
12.45770474823144
 21
14.42147229552647
 31
0.0
  0
LINE
  5
820
330
22
100
AcDbEntity
  8
0
 62
     0
 48
0.2
100
AcDbLine
 10
12.39885760764332
 20
14.26883710553233
 30
0.0
 11
12.41221848434736
 21
14.27773196137606
 31
0.0
  0
LINE
  5
821
330
22
100
AcDbEntity
  8
0
 62
     0
 48
0.2
100
AcDbLine
 10
12.45770474823144
 20
14.42147229552647
 30
0.0
 11
12.45770474823144
 21
14.3963119066798
 31
0.0
  0
LINE
  5
822
330
22
100
AcDbEntity
  8
0
 62
     0
 48
0.2
100
AcDbLine
 10
12.41802588801386
 20
14.43930449801537
 30
0.0
 11
12.36808948577971
 21
14.33803030746108
 31
0.0
  0
LINE
  5
823
330
22
100
AcDbEntity
  8
0
 62
     0
 48
0.2
100
AcDbLine
 10
12.36808948577971
 20
14.33803030746108
 30
0.0
 11
12.36781733301723
 21
14.29387586975238
 31
0.0
  0
LINE
  5
824
330
22
100
AcDbEntity
  8
0
 62
     0
 48
0.2
100
AcDbLine
 10
12.40478182322761
 20
14.44936136800247
 30
0.0
 11
12.35484542099346
 21
14.34808717744818
 31
0.0
  0
LINE
  5
825
330
22
100
AcDbEntity
  8
0
 62
     0
 48
0.2
100
AcDbLine
 10
12.35484542099346
 20
14.34808717744818
 30
0.0
 11
12.35457711071172
 21
14.30455614911591
 31
0.0
  0
LINE
  5
826
330
22
100
AcDbEntity
  8
0
 62
     0
 48
0.2
100
AcDbLine
 10
12.40478182322761
 20
14.44936136800247
 30
0.0
 11
12.41341140053646
 21
14.4551064136199
 31
0.0
  0
LINE
  5
827
330
22
100
AcDbEntity
  8
0
 62
     0
 48
0.2
100
AcDbLine
 10
12.41802588801386
 20
14.43930449801537
 30
0.0
 11
12.4266554653226
 21
14.44504954363281
 31
0.0
  0
LINE
  5
828
330
22
100
AcDbEntity
  8
0
 62
     0
 48
0.2
100
AcDbLine
 10
12.4266554653226
 20
14.44504954363281
 30
0.0
 11
12.41341140053646
 21
14.4551064136199
 31
0.0
  0
LINE
  5
829
330
22
100
AcDbEntity
  8
0
 62
     0
 48
0.2
100
AcDbLine
 10
12.35457711071172
 20
14.30455614911585
 30
0.0
 11
12.36793798741576
 21
14.31345100495959
 31
0.0
  0
LINE
  5
82A
330
22
100
AcDbEntity
  8
0
 62
     0
 48
0.2
100
AcDbLine
 10
12.41341140053646
 20
14.4551064136199
 30
0.0
 11
12.41341140053646
 21
14.42994602477319
 31
0.0
  0
LINE
  5
82B
330
22
100
AcDbEntity
  8
0
 62
     0
 48
0.2
100
AcDbLine
 10
12.37373254031922
 20
14.47293861610878
 30
0.0
 11
12.32379613808507
 21
14.3716644255545
 31
0.0
  0
LINE
  5
82C
330
22
100
AcDbEntity
  8
0
 62
     0
 48
0.2
100
AcDbLine
 10
12.32379613808507
 20
14.3716644255545
 30
0.0
 11
12.32353683608562
 21
14.32959491333592
 31
0.0
  0
LINE
  5
82D
330
22
100
AcDbEntity
  8
0
 62
     0
 48
0.2
100
AcDbLine
 10
12.36048847553297
 20
14.48299548609587
 30
0.0
 11
12.31055207329848
 21
14.3817212955416
 31
0.0
  0
LINE
  5
82E
330
22
100
AcDbEntity
  8
0
 62
     0
 48
0.2
100
AcDbLine
 10
12.31055207329848
 20
14.3817212955416
 30
0.0
 11
12.31029661378045
 21
14.34027519269944
 31
0.0
  0
LINE
  5
82F
330
22
100
AcDbEntity
  8
0
 62
     0
 48
0.2
100
AcDbLine
 10
12.36048847553297
 20
14.48299548609587
 30
0.0
 11
12.36911805284183
 21
14.48874053171332
 31
0.0
  0
LINE
  5
830
330
22
100
AcDbEntity
  8
0
 62
     0
 48
0.2
100
AcDbLine
 10
12.37373254031922
 20
14.47293861610878
 30
0.0
 11
12.38236211762796
 21
14.47868366172621
 31
0.0
  0
LINE
  5
831
330
22
100
AcDbEntity
  8
0
 62
     0
 48
0.2
100
AcDbLine
 10
12.38236211762796
 20
14.47868366172621
 30
0.0
 11
12.36911805284183
 21
14.48874053171332
 31
0.0
  0
LINE
  5
832
330
22
100
AcDbEntity
  8
0
 62
     0
 48
0.2
100
AcDbLine
 10
12.31029661378045
 20
14.34027519269944
 30
0.0
 11
12.32365749048415
 21
14.34917004854317
 31
0.0
  0
LINE
  5
833
330
22
100
AcDbEntity
  8
0
 62
     0
 48
0.2
100
AcDbLine
 10
12.36911805284183
 20
14.48874053171332
 30
0.0
 11
12.36911805284183
 21
14.4635801428666
 31
0.0
  0
LINE
  5
834
330
22
100
AcDbEntity
  8
0
 62
     0
 48
0.2
100
AcDbLine
 10
12.32943919262414
 20
14.50657273420217
 30
0.0
 11
12.27950279038998
 21
14.40529854364793
 31
0.0
  0
LINE
  5
835
330
22
100
AcDbEntity
  8
0
 62
     0
 48
0.2
100
AcDbLine
 10
12.27950279038998
 20
14.40529854364793
 30
0.0
 11
12.27925633915436
 21
14.36531395691949
 31
0.0
  0
LINE
  5
836
330
22
100
AcDbEntity
  8
0
 62
     0
 48
0.2
100
AcDbLine
 10
12.316195127838
 20
14.51662960418926
 30
0.0
 11
12.26625872560373
 21
14.41535541363497
 31
0.0
  0
LINE
  5
837
330
22
100
AcDbEntity
  8
0
 62
     0
 48
0.2
100
AcDbLine
 10
12.26625872560373
 20
14.41535541363497
 30
0.0
 11
12.26601611684885
 21
14.37599423628299
 31
0.0
  0
LINE
  5
838
330
22
100
AcDbEntity
  8
0
 62
     0
 48
0.2
100
AcDbLine
 10
12.316195127838
 20
14.51662960418926
 30
0.0
 11
12.32482470514674
 21
14.52237464980672
 31
0.0
  0
LINE
  5
839
330
22
100
AcDbEntity
  8
0
 62
     0
 48
0.2
100
AcDbLine
 10
12.32943919262414
 20
14.50657273420217
 30
0.0
 11
12.33806876993299
 21
14.51231777981963
 31
0.0
  0
LINE
  5
83A
330
22
100
AcDbEntity
  8
0
 62
     0
 48
0.2
100
AcDbLine
 10
12.33806876993299
 20
14.51231777981963
 30
0.0
 11
12.32482470514674
 21
14.52237464980672
 31
0.0
  0
LINE
  5
83B
330
22
100
AcDbEntity
  8
0
 62
     0
 48
0.2
100
AcDbLine
 10
12.26601611684885
 20
14.37599423628299
 30
0.0
 11
12.27937699355255
 21
14.38488909212671
 31
0.0
  0
LINE
  5
83C
330
22
100
AcDbEntity
  8
0
 62
     0
 48
0.2
100
AcDbLine
 10
12.32482470514674
 20
14.52237464980672
 30
0.0
 11
12.32482470514674
 21
14.49721426096001
 31
0.0
  0
LINE
  5
83D
330
22
100
AcDbEntity
  8
0
100
AcDbLine
 10
11.70326951442541
 20
14.71651792415129
 30
0.0
 11
11.70326951442541
 21
14.89955207903635
 31
0.0
  0
LINE
  5
83E
330
22
100
AcDbEntity
  8
0
100
AcDbLine
 10
11.70326951442541
 20
14.89955207903635
 30
0.0
 11
12.51946570708049
 21
14.89955207903635
 31
0.0
  0
LINE
  5
83F
330
22
100
AcDbEntity
  8
0
100
AcDbLine
 10
12.7250601710715
 20
15.41010105431484
 30
0.0
 11
12.7250601710715
 21
15.10974255929474
 31
0.0
  0
TEXT
  5
840
330
22
100
AcDbEntity
  8
0
100
AcDbText
 10
12.89201350833184
 20
15.53099778730986
 30
0.0
 40
0.075
  1
24 VDC
100
AcDbText
  0
LINE
  5
841
330
22
100
AcDbEntity
  8
0
100
AcDbLine
 10
12.60936517910579
 20
15.48472143362582
 30
0.0
 11
12.84075516303733
 21
15.48472143362582
 31
0.0
  0
LWPOLYLINE
  5
842
330
22
100
AcDbEntity
  8
0
100
AcDbPolyline
 90
        6
 70
     1
 43
0.0
 10
13.08644914050888
 20
14.78269310661631
 10
13.2194112170921
 20
14.78269310661631
 10
13.2858922553836
 20
14.89784164267731
 10
13.2194112170921
 20
15.01299017873829
 10
13.08644914050888
 20
15.01299017873829
 10
13.01996810221726
 20
14.89784164267731
  0
TEXT
  5
843
330
22
100
AcDbEntity
  8
0
100
AcDbText
 10
13.10524937381012
 20
14.83530537007643
 30
0.0
 40
0.12
  1
4
100
AcDbText
  0
LWPOLYLINE
  5
844
330
22
100
AcDbEntity
  8
0
100
AcDbPolyline
 90
        6
 70
     1
 43
0.0
 10
11.20753544389618
 20
14.8371543731848
 10
11.3404975204794
 20
14.8371543731848
 10
11.40697855877102
 20
14.95230290924579
 10
11.3404975204794
 20
15.06745144530679
 10
11.20753544389618
 20
15.06745144530679
 10
11.14105440560456
 20
14.95230290924579
  0
TEXT
  5
845
330
22
100
AcDbEntity
  8
0
100
AcDbText
 10
11.22410494371888
 20
14.88530516968761
 30
0.0
 40
0.12
  1
5
100
AcDbText
  0
CIRCLE
  5
846
330
22
100
AcDbEntity
  8
0
100
AcDbCircle
 10
12.7250601710715
 20
15.53710075834663
 30
0.0
 40
0.1269997040317915
  0
LINE
  5
847
330
22
100
AcDbEntity
  8
0
100
AcDbLine
 10
12.7250601710715
 20
15.66410046237843
 30
0.0
 11
12.84075516303733
 21
15.48472143362582
 31
0.0
  0
LINE
  5
848
330
22
100
AcDbEntity
  8
0
100
AcDbLine
 10
12.7250601710715
 20
15.66410046237843
 30
0.0
 11
12.60936517910579
 21
15.48472143362582
 31
0.0
  0
TEXT
  5
884
330
22
100
AcDbEntity
  8
0
100
AcDbText
 10
15.7437443606622
 20
11.21809086086903
 30
0.0
 40
0.075
  1
24 VDC
100
AcDbText
  0
LINE
  5
885
330
22
100
AcDbEntity
  8
0
100
AcDbLine
 10
15.46109603143615
 20
11.171814507185
 30
0.0
 11
15.69248601536769
 21
11.171814507185
 31
0.0
  0
CIRCLE
  5
886
330
22
100
AcDbEntity
  8
0
100
AcDbCircle
 10
15.57679102340186
 20
11.2241938319058
 30
0.0
 40
0.1269997040317915
  0
LINE
  5
887
330
22
100
AcDbEntity
  8
0
100
AcDbLine
 10
15.57679102340186
 20
11.35119353593761
 30
0.0
 11
15.69248601536769
 21
11.171814507185
 31
0.0
  0
LINE
  5
888
330
22
100
AcDbEntity
  8
0
100
AcDbLine
 10
15.57679102340186
 20
11.35119353593761
 30
0.0
 11
15.46109603143615
 21
11.171814507185
 31
0.0
  0
LINE
  5
88A
330
22
100
AcDbEntity
  8
0
100
AcDbLine
 10
15.44979131937007
 20
11.2241938319058
 30
0.0
 11
15.16703070862195
 21
11.2241938319058
 31
0.0
  0
ENDSEC
  0
SECTION
  2
OBJECTS
  0
DICTIONARY
  5
B
330
0
100
AcDbDictionary
281
     1
  3
ACAD_COLOR
350
36
  3
ACAD_DETAILVIEWSTYLE
350
1A9
  3
ACAD_GROUP
350
34
  3
ACAD_IMAGE_VARS
350
1A4
  3
ACAD_LAYOUT
350
2B
  3
ACAD_MATERIAL
350
D
  3
ACAD_MLEADERSTYLE
350
1A8
  3
ACAD_MLINESTYLE
350
20
  3
ACAD_PLOTSETTINGS
350
35
  3
ACAD_PLOTSTYLENAME
350
A
  3
ACAD_SCALELIST
350
3F
  3
ACAD_SECTIONVIEWSTYLE
350
1AA
  3
ACAD_TABLESTYLE
350
1A7
  3
ACAD_VISUALSTYLE
350
37
  3
ACDB_RECOMPOSE_DATA
350
892
  3
AcDbVariableDictionary
350
1A5
  3
APPDATA
350
1C2
  0
SUN
  5
3C
330
3A
100
AcDbSun
 90
        1
290
     0
 63
     7
421
 16777215
 40
1.0
291
     1
 91
  2455826
 92
 54000000
292
     0
 70
     2
 71
   256
280
     1
1001
ACAD
1000
AcDbSavedByObjectVersion
1070
     0
  0
DICTIONARY
  5
3
330
2
100
AcDbDictionary
280
     1
281
     1
  3
ACAD_LAYERSTATES
360
4
  0
DICTIONARY
  5
27
330
26
100
AcDbDictionary
280
     1
281
     1
  3
ADSK_XREC_LAYER_RECONCILED
360
28
  0
DICTIONARY
  5
67
330
66
100
AcDbDictionary
280
     1
281
     1
  3
ADSK_XREC_LAYER_RECONCILED
360
68
  0
DICTIONARY
  5
6D
330
6C
100
AcDbDictionary
280
     1
281
     1
  3
ADSK_XREC_LAYER_RECONCILED
360
6E
  0
DICTIONARY
  5
7
330
1
100
AcDbDictionary
280
     1
281
     1
  3
ADSK_XREC_LAYER_RECONCILED
360
8
  0
DICTIONARY
  5
195
330
194
100
AcDbDictionary
280
     1
281
     1
  3
ADSK_XREC_LAYER_RECONCILED
360
196
  0
DICTIONARY
  5
23
330
22
100
AcDbDictionary
280
     1
281
     1
  3
ACAD_SORTENTS
360
24
  0
DICTIONARY
  5
36
102
{ACAD_REACTORS
330
B
102
}
330
B
100
AcDbDictionary
281
     1
  0
DICTIONARY
  5
1A9
102
{ACAD_REACTORS
330
B
102
}
330
B
100
AcDbDictionary
281
     1
  0
DICTIONARY
  5
34
102
{ACAD_REACTORS
330
B
102
}
330
B
100
AcDbDictionary
281
     1
  0
RASTERVARIABLES
  5
1A4
102
{ACAD_REACTORS
330
B
102
}
330
B
100
AcDbRasterVariables
 90
        0
 70
     1
 71
     1
 72
     5
  0
DICTIONARY
  5
2B
102
{ACAD_REACTORS
330
B
102
}
330
B
100
AcDbDictionary
281
     1
  3
Layout1
350
30
  3
Model
350
2A
  0
DICTIONARY
  5
D
102
{ACAD_REACTORS
330
B
102
}
330
B
100
AcDbDictionary
281
     1
  3
ByBlock
350
62
  3
ByLayer
350
17
  3
Global
350
C
  0
DICTIONARY
  5
1A8
102
{ACAD_REACTORS
330
B
102
}
330
B
100
AcDbDictionary
281
     1
  3
Standard
350
1C1
  0
DICTIONARY
  5
20
102
{ACAD_REACTORS
330
B
102
}
330
B
100
AcDbDictionary
281
     1
  3
Standard
350
1F
  0
DICTIONARY
  5
35
102
{ACAD_REACTORS
330
B
102
}
330
B
100
AcDbDictionary
281
     1
  0
ACDBDICTIONARYWDFLT
  5
A
102
{ACAD_REACTORS
330
B
102
}
330
B
100
AcDbDictionary
281
     1
  3
Normal
350
9
100
AcDbDictionaryWithDefault
340
9
  0
DICTIONARY
  5
3F
102
{ACAD_REACTORS
330
B
102
}
330
B
100
AcDbDictionary
281
     1
  3
*A1
350
61
  3
*A2
350
1CC
  0
DICTIONARY
  5
1AA
102
{ACAD_REACTORS
330
B
102
}
330
B
100
AcDbDictionary
281
     1
  0
DICTIONARY
  5
1A7
102
{ACAD_REACTORS
330
B
102
}
330
B
100
AcDbDictionary
281
     1
  3
Standard
350
1C0
  0
DICTIONARY
  5
37
102
{ACAD_REACTORS
330
B
102
}
330
B
100
AcDbDictionary
281
     1
  3
2dWireframe
350
3B
  3
Basic
350
1B0
  3
Brighten
350
1B3
  3
ColorChange
350
1B7
  3
Conceptual
350
1B1
  3
Dim
350
1B2
  3
EdgeColorOff
350
1BA
  3
Facepattern
350
1B6
  3
Flat
350
1AB
  3
FlatWithEdges
350
1AC
  3
Gouraud
350
1AD
  3
GouraudWithEdges
350
1AE
  3
Hidden
350
1AF
  3
JitterOff
350
1B8
  3
Linepattern
350
1B5
  3
OverhangOff
350
1B9
  3
Realistic
350
38
  3
Shaded
350
1BF
  3
Shaded with edges
350
1BE
  3
Shades of Gray
350
1BB
  3
Sketchy
350
1BC
  3
Thicken
350
1B4
  3
Wireframe
350
39
  3
X-Ray
350
1BD
  0
XRECORD
  5
892
102
{ACAD_REACTORS
330
B
102
}
330
B
100
AcDbXrecord
280
     1
 90
        1
330
1C0
  0
DICTIONARY
  5
1A5
102
{ACAD_REACTORS
330
B
102
}
330
B
100
AcDbDictionary
281
     1
  3
CANNOSCALE
350
1A6
  3
CMLEADERSTYLE
350
217
  3
CTABLESTYLE
350
216
  0
DICTIONARY
  5
1C2
102
{ACAD_REACTORS
330
B
102
}
330
B
100
AcDbDictionary
281
     1
  0
DICTIONARY
  5
4
102
{ACAD_REACTORS
330
3
102
}
330
3
100
AcDbDictionary
281
     1
1001
AcLayerTools
1000
22
1000
0
  0
XRECORD
  5
28
102
{ACAD_REACTORS
330
27
102
}
330
27
100
AcDbXrecord
280
     1
290
     1
  0
XRECORD
  5
68
102
{ACAD_REACTORS
330
67
102
}
330
67
100
AcDbXrecord
280
     1
290
     1
  0
XRECORD
  5
6E
102
{ACAD_REACTORS
330
6D
102
}
330
6D
100
AcDbXrecord
280
     1
290
     1
  0
XRECORD
  5
8
102
{ACAD_REACTORS
330
7
102
}
330
7
100
AcDbXrecord
280
     1
290
     1
  0
XRECORD
  5
196
102
{ACAD_REACTORS
330
195
102
}
330
195
100
AcDbXrecord
280
     1
290
     1
  0
SORTENTSTABLE
  5
24
102
{ACAD_REACTORS
330
23
102
}
330
23
100
AcDbSortentsTable
330
22
  0
LAYOUT
  5
30
102
{ACAD_REACTORS
330
2B
102
}
330
2B
100
AcDbPlotSettings
  1

  2
none_device
  4

  6

 40
0.0
 41
0.0
 42
0.0
 43
0.0
 44
0.0
 45
0.0
 46
0.0
 47
0.0
 48
0.0
 49
0.0
140
0.0
141
0.0
142
1.0
143
1.0
 70
   688
 72
     0
 73
     0
 74
     5
  7
Screening 100%.ctb
 75
    16
 76
     0
 77
     2
 78
   300
147
1.0
148
0.0
149
0.0
100
AcDbLayout
  1
Layout1
 70
     1
 71
     1
 10
0.0
 20
0.0
 11
12.0
 21
9.0
 12
0.0
 22
0.0
 32
0.0
 14
1.000000000000000E+20
 24
1.000000000000000E+20
 34
1.000000000000000E+20
 15
-1.000000000000000E+20
 25
-1.000000000000000E+20
 35
-1.000000000000000E+20
146
0.0
 13
0.0
 23
0.0
 33
0.0
 16
1.0
 26
0.0
 36
0.0
 17
0.0
 27
1.0
 37
0.0
 76
     0
330
2D
  0
LAYOUT
  5
2A
102
{ACAD_REACTORS
330
2B
102
}
330
2B
100
AcDbPlotSettings
  1

  2
DWG To PDF.pc3
  4
ANSI_expand_A_(8.50_x_11.00_Inches)
  6

 40
5.793749809265137
 41
10.79374980926514
 42
5.793746948242188
 43
10.79376220703125
 44
215.8999938964844
 45
279.3999938964844
 46
2.54
 47
0.0
 48
-862.0953919762505
 49
-102.1230068395058
140
-852.0953919762505
141
-94.62300683950582
142
1.0
143
0.985212190455698
 70
 11952
 72
     0
 73
     1
 74
     4
  7
Screening 100%.ctb
 75
     0
 76
     5
 77
     0
 78
   300
147
1.015009771181843
148
21897.22295619676
149
2593.924373723448
100
AcDbLayout
  1
Model
 70
     1
 71
     0
 10
0.0
 20
0.0
 11
33.11023622047244
 21
23.38582677165354
 12
0.0
 22
0.0
 32
0.0
 14
1.297173733574823
 24
4.51487382670642
 34
0.0
 15
18.70985571756705
 25
16.08199406857008
 35
0.0
146
0.0
 13
0.0
 23
0.0
 33
0.0
 16
1.0
 26
0.0
 36
0.0
 17
0.0
 27
1.0
 37
0.0
 76
     0
330
22
331
3A
1001
ACAD_PSEXT
1000
DWG To PDF.pc3
1000
DWG To PDF
1000
File
1000

1070
     0
  0
MATERIAL
  5
62
102
{ACAD_REACTORS
330
D
102
}
102
{ACAD_XDICTIONARY
360
63
102
}
330
D
100
AcDbMaterial
  1
ByBlock
 72
     0
 73
     2
 43
0.0208333333333333
 43
0.0
 43
0.0
 43
0.0
 43
0.0
 43
0.0208333333333333
 43
0.0
 43
0.0
 43
0.0
 43
0.0
 43
1.0
 43
0.0
 43
0.0
 43
0.0
 43
0.0
 43
1.0
 77
     0
 78
     2
 47
0.0208333333333333
 47
0.0
 47
0.0
 47
0.0
 47
0.0
 47
0.0208333333333333
 47
0.0
 47
0.0
 47
0.0
 47
0.0
 47
1.0
 47
0.0
 47
0.0
 47
0.0
 47
0.0
 47
1.0
171
     0
172
     2
 49
0.0208333333333333
 49
0.0
 49
0.0
 49
0.0
 49
0.0
 49
0.0208333333333333
 49
0.0
 49
0.0
 49
0.0
 49
0.0
 49
1.0
 49
0.0
 49
0.0
 49
0.0
 49
0.0
 49
1.0
175
     0
176
     2
142
0.0208333333333333
142
0.0
142
0.0
142
0.0
142
0.0
142
0.0208333333333333
142
0.0
142
0.0
142
0.0
142
0.0
142
1.0
142
0.0
142
0.0
142
0.0
142
0.0
142
1.0
179
     0
270
     2
144
0.0208333333333333
144
0.0
144
0.0
144
0.0
144
0.0
144
0.0208333333333333
144
0.0
144
0.0
144
0.0
144
0.0
144
1.0
144
0.0
144
0.0
144
0.0
144
0.0
144
1.0
274
     2
147
0.0208333333333333
147
0.0
147
0.0
147
0.0
147
0.0
147
0.0208333333333333
147
0.0
147
0.0
147
0.0
147
0.0
147
1.0
147
0.0
147
0.0
147
0.0
147
0.0
147
1.0
 94
      127
  0
MATERIAL
  5
17
102
{ACAD_REACTORS
330
D
102
}
102
{ACAD_XDICTIONARY
360
18
102
}
330
D
100
AcDbMaterial
  1
ByLayer
 72
     0
 73
     2
 43
0.0208333333333333
 43
0.0
 43
0.0
 43
0.0
 43
0.0
 43
0.0208333333333333
 43
0.0
 43
0.0
 43
0.0
 43
0.0
 43
1.0
 43
0.0
 43
0.0
 43
0.0
 43
0.0
 43
1.0
 77
     0
 78
     2
 47
0.0208333333333333
 47
0.0
 47
0.0
 47
0.0
 47
0.0
 47
0.0208333333333333
 47
0.0
 47
0.0
 47
0.0
 47
0.0
 47
1.0
 47
0.0
 47
0.0
 47
0.0
 47
0.0
 47
1.0
171
     0
172
     2
 49
0.0208333333333333
 49
0.0
 49
0.0
 49
0.0
 49
0.0
 49
0.0208333333333333
 49
0.0
 49
0.0
 49
0.0
 49
0.0
 49
1.0
 49
0.0
 49
0.0
 49
0.0
 49
0.0
 49
1.0
175
     0
176
     2
142
0.0208333333333333
142
0.0
142
0.0
142
0.0
142
0.0
142
0.0208333333333333
142
0.0
142
0.0
142
0.0
142
0.0
142
1.0
142
0.0
142
0.0
142
0.0
142
0.0
142
1.0
179
     0
270
     2
144
0.0208333333333333
144
0.0
144
0.0
144
0.0
144
0.0
144
0.0208333333333333
144
0.0
144
0.0
144
0.0
144
0.0
144
1.0
144
0.0
144
0.0
144
0.0
144
0.0
144
1.0
274
     2
147
0.0208333333333333
147
0.0
147
0.0
147
0.0
147
0.0
147
0.0208333333333333
147
0.0
147
0.0
147
0.0
147
0.0
147
1.0
147
0.0
147
0.0
147
0.0
147
0.0
147
1.0
 94
      127
  0
MATERIAL
  5
C
102
{ACAD_REACTORS
330
D
102
}
102
{ACAD_XDICTIONARY
360
E
102
}
330
D
100
AcDbMaterial
  1
Global
 72
     0
 73
     2
 43
0.0208333333333333
 43
0.0
 43
0.0
 43
0.0
 43
0.0
 43
0.0208333333333333
 43
0.0
 43
0.0
 43
0.0
 43
0.0
 43
1.0
 43
0.0
 43
0.0
 43
0.0
 43
0.0
 43
1.0
 77
     0
 78
     2
 47
0.0208333333333333
 47
0.0
 47
0.0
 47
0.0
 47
0.0
 47
0.0208333333333333
 47
0.0
 47
0.0
 47
0.0
 47
0.0
 47
1.0
 47
0.0
 47
0.0
 47
0.0
 47
0.0
 47
1.0
171
     0
172
     2
 49
0.0208333333333333
 49
0.0
 49
0.0
 49
0.0
 49
0.0
 49
0.0208333333333333
 49
0.0
 49
0.0
 49
0.0
 49
0.0
 49
1.0
 49
0.0
 49
0.0
 49
0.0
 49
0.0
 49
1.0
175
     0
176
     2
142
0.0208333333333333
142
0.0
142
0.0
142
0.0
142
0.0
142
0.0208333333333333
142
0.0
142
0.0
142
0.0
142
0.0
142
1.0
142
0.0
142
0.0
142
0.0
142
0.0
142
1.0
179
     0
270
     2
144
0.0208333333333333
144
0.0
144
0.0
144
0.0
144
0.0
144
0.0208333333333333
144
0.0
144
0.0
144
0.0
144
0.0
144
1.0
144
0.0
144
0.0
144
0.0
144
0.0
144
1.0
274
     2
147
0.0208333333333333
147
0.0
147
0.0
147
0.0
147
0.0
147
0.0208333333333333
147
0.0
147
0.0
147
0.0
147
0.0
147
1.0
147
0.0
147
0.0
147
0.0
147
0.0
147
1.0
 94
      127
  0
MLEADERSTYLE
  5
1C1
102
{ACAD_REACTORS
330
1A8
102
}
330
1A8
100
AcDbMLeaderStyle
170
     2
171
     1
172
     0
 90
        2
 40
0.0
 41
0.0
173
     1
 91
-1056964608
340
12
 92
       -2
290
     1
 42
0.09
291
     1
 43
0.36
  3
Standard
341
0
 44
0.18
300

342
14
174
     1
178
     1
175
     1
176
     0
 93
-1056964608
 45
0.18
292
     0
297
     0
 46
0.18
343
0
 94
-1056964608
 47
1.0
 49
1.0
140
1.0
293
     1
141
0.0
294
     1
177
     0
142
1.0
295
     0
296
     0
143
0.125
1001
ACAD_MLEADERVER
1070
     2
  0
MLINESTYLE
  5
1F
102
{ACAD_REACTORS
330
20
102
}
330
20
100
AcDbMlineStyle
  2
STANDARD
 70
     0
  3

 62
   256
 51
90.0
 52
90.0
 71
     2
 49
0.5
 62
   256
  6
BYLAYER
 49
-0.5
 62
   256
  6
BYLAYER
  0
ACDBPLACEHOLDER
  5
9
102
{ACAD_REACTORS
330
A
102
}
330
A
  0
SCALE
  5
61
102
{ACAD_REACTORS
330
3F
102
}
330
3F
100
AcDbScale
 70
     0
300
1/2" = 1'-0"
140
0.5
141
12.0
290
     0
  0
SCALE
  5
1CC
102
{ACAD_REACTORS
330
3F
102
}
330
3F
100
AcDbScale
 70
     0
300
1:1
140
1.0
141
1.0
290
     1
  0
TABLESTYLE
  5
1C0
102
{ACAD_REACTORS
330
1A7
102
}
102
{ACAD_XDICTIONARY
360
88F
102
}
330
1A7
100
AcDbTableStyle
  3
Standard
 70
     0
 71
     0
 40
0.06
 41
0.06
280
     0
281
     0
  7
Standard
140
0.18
170
     2
 62
     0
 63
   257
283
     0
 90
        4
 91
        0
  1

274
    -2
284
     1
 64
     0
275
    -2
285
     1
 65
     0
276
    -2
286
     1
 66
     0
277
    -2
287
     1
 67
     0
278
    -2
288
     1
 68
     0
279
    -2
289
     1
 69
     0
  7
Standard
140
0.25
170
     5
 62
     0
 63
   257
283
     0
 90
        4
 91
        0
  1

274
    -2
284
     1
 64
     0
275
    -2
285
     1
 65
     0
276
    -2
286
     1
 66
     0
277
    -2
287
     1
 67
     0
278
    -2
288
     1
 68
     0
279
    -2
289
     1
 69
     0
  7
Standard
140
0.18
170
     5
 62
     0
 63
   257
283
     0
 90
        4
 91
        0
  1

274
    -2
284
     1
 64
     0
275
    -2
285
     1
 65
     0
276
    -2
286
     1
 66
     0
277
    -2
287
     1
 67
     0
278
    -2
288
     1
 68
     0
279
    -2
289
     1
 69
     0
  0
VISUALSTYLE
  5
3B
102
{ACAD_REACTORS
330
37
102
}
330
37
100
AcDbVisualStyle
  2
2dWireframe
 70
     4
 71
     0
 72
     2
 73
     0
 90
        0
 40
0.6
 41
30.0
 62
     5
 63
     7
421
 16777215
 74
     1
 91
        4
 64
     7
 65
   257
 75
     1
175
     1
 42
1.0
 92
        0
 66
   257
 43
1.0
 76
     1
 77
     6
 78
     2
 67
     7
 79
     5
170
     0
171
     0
290
     0
174
     0
 93
        1
 44
0.0
173
     0
291
     0
 45
0.0
  0
VISUALSTYLE
  5
1B0
102
{ACAD_REACTORS
330
37
102
}
330
37
100
AcDbVisualStyle
  2
Basic
 70
     7
 71
     1
 72
     0
 73
     1
 90
        0
 40
0.6
 41
30.0
 62
     5
 63
     7
421
 16777215
 74
     0
 91
        4
 64
     7
 65
   257
 75
     1
175
     1
 42
1.0
 92
        8
 66
     7
 43
1.0
 76
     1
 77
     6
 78
     2
 67
     7
 79
     5
170
     0
171
     0
290
     0
174
     0
 93
        1
 44
0.0
173
     0
291
     1
 45
0.0
  0
VISUALSTYLE
  5
1B3
102
{ACAD_REACTORS
330
37
102
}
330
37
100
AcDbVisualStyle
  2
Brighten
 70
    12
 71
     2
 72
     2
 73
     0
 90
        0
 40
0.6
 41
30.0
 62
     5
 63
     7
421
 16777215
 74
     1
 91
        4
 64
     7
 65
   257
 75
     1
175
     1
 42
1.0
 92
        8
 66
     7
 43
1.0
 76
     1
 77
     6
 78
     2
 67
     7
 79
     5
170
     0
171
     0
290
     0
174
     0
 93
        1
 44
50.0
173
     0
291
     1
 45
0.0
  0
VISUALSTYLE
  5
1B7
102
{ACAD_REACTORS
330
37
102
}
330
37
100
AcDbVisualStyle
  2
ColorChange
 70
    16
 71
     2
 72
     2
 73
     3
 90
        0
 40
0.6
 41
30.0
 62
     5
 63
     8
421
  8421504
 74
     1
 91
        4
 64
     7
 65
   257
 75
     1
175
     1
 42
1.0
 92
        8
 66
     8
424
  8421504
 43
1.0
 76
     1
 77
     6
 78
     2
 67
     7
 79
     5
170
     0
171
     0
290
     0
174
     0
 93
        1
 44
0.0
173
     0
291
     1
 45
0.0
  0
VISUALSTYLE
  5
1B1
102
{ACAD_REACTORS
330
37
102
}
330
37
100
AcDbVisualStyle
  2
Conceptual
 70
     9
 71
     3
 72
     2
 73
     0
 90
        0
 40
0.6
 41
30.0
 62
     5
 63
     7
421
 16777215
 74
     2
 91
        2
 64
     7
 65
   257
 75
     1
175
     1
 42
179.0
 92
        8
 66
     7
 43
1.0
 76
     1
 77
     6
 78
     2
 67
     7
 79
     3
170
     0
171
     0
290
     0
174
     0
 93
        1
 44
0.0
173
     0
291
     0
 45
0.0
  0
VISUALSTYLE
  5
1B2
102
{ACAD_REACTORS
330
37
102
}
330
37
100
AcDbVisualStyle
  2
Dim
 70
    11
 71
     2
 72
     2
 73
     0
 90
        0
 40
0.6
 41
30.0
 62
     5
 63
     7
421
 16777215
 74
     1
 91
        4
 64
     7
 65
   257
 75
     1
175
     1
 42
1.0
 92
        8
 66
     7
 43
1.0
 76
     1
 77
     6
 78
     2
 67
     7
 79
     5
170
     0
171
     0
290
     0
174
     0
 93
        1
 44
-50.0
173
     0
291
     1
 45
0.0
  0
VISUALSTYLE
  5
1BA
102
{ACAD_REACTORS
330
37
102
}
330
37
100
AcDbVisualStyle
  2
EdgeColorOff
 70
    22
 71
     2
 72
     2
 73
     0
 90
        0
 40
0.6
 41
30.0
 62
     5
 63
     7
421
 16777215
 74
     1
 91
        4
 64
     7
 65
   257
 75
     1
175
     1
 42
1.0
 92
        8
 66
     7
 43
1.0
 76
     1
 77
     6
 78
     2
 67
     7
 79
     5
170
     0
171
     0
290
     0
174
     0
 93
        1
 44
0.0
173
     0
291
     1
 45
0.0
  0
VISUALSTYLE
  5
1B6
102
{ACAD_REACTORS
330
37
102
}
330
37
100
AcDbVisualStyle
  2
Facepattern
 70
    15
 71
     2
 72
     2
 73
     0
 90
        0
 40
0.6
 41
30.0
 62
     5
 63
     7
421
 16777215
 74
     1
 91
        4
 64
     7
 65
   257
 75
     1
175
     1
 42
1.0
 92
        8
 66
     7
 43
1.0
 76
     1
 77
     6
 78
     2
 67
     7
 79
     5
170
     0
171
     0
290
     0
174
     0
 93
        1
 44
0.0
173
     0
291
     1
 45
0.0
  0
VISUALSTYLE
  5
1AB
102
{ACAD_REACTORS
330
37
102
}
330
37
100
AcDbVisualStyle
  2
Flat
 70
     0
 71
     2
 72
     1
 73
     1
 90
        2
 40
0.6
 41
30.0
 62
     5
 63
     7
421
 16777215
 74
     0
 91
        0
 64
     7
 65
   257
 75
     1
175
     1
 42
1.0
 92
        8
 66
     7
 43
1.0
 76
     1
 77
     6
 78
     2
 67
     7
 79
     5
170
     0
171
     0
290
     0
174
     0
 93
       13
 44
0.0
173
     0
291
     1
 45
0.0
  0
VISUALSTYLE
  5
1AC
102
{ACAD_REACTORS
330
37
102
}
330
37
100
AcDbVisualStyle
  2
FlatWithEdges
 70
     1
 71
     2
 72
     1
 73
     1
 90
        2
 40
0.6
 41
30.0
 62
     5
 63
     7
421
 16777215
 74
     1
 91
        0
 64
     7
 65
   257
 75
     1
175
     1
 42
1.0
 92
        0
 66
   257
 43
1.0
 76
     1
 77
     6
 78
     2
 67
     7
 79
     5
170
     0
171
     0
290
     0
174
     0
 93
       13
 44
0.0
173
     0
291
     1
 45
0.0
  0
VISUALSTYLE
  5
1AD
102
{ACAD_REACTORS
330
37
102
}
330
37
100
AcDbVisualStyle
  2
Gouraud
 70
     2
 71
     2
 72
     2
 73
     1
 90
        2
 40
0.6
 41
30.0
 62
     5
 63
     7
421
 16777215
 74
     0
 91
        0
 64
     7
 65
   257
 75
     1
175
     1
 42
1.0
 92
        0
 66
     7
 43
1.0
 76
     1
 77
     6
 78
     2
 67
     7
 79
     5
170
     0
171
     0
290
     0
174
     0
 93
       13
 44
0.0
173
     0
291
     1
 45
0.0
  0
VISUALSTYLE
  5
1AE
102
{ACAD_REACTORS
330
37
102
}
330
37
100
AcDbVisualStyle
  2
GouraudWithEdges
 70
     3
 71
     2
 72
     2
 73
     1
 90
        2
 40
0.6
 41
30.0
 62
     5
 63
     7
421
 16777215
 74
     1
 91
        0
 64
     7
 65
   257
 75
     1
175
     1
 42
1.0
 92
        0
 66
   257
 43
1.0
 76
     1
 77
     6
 78
     2
 67
     7
 79
     5
170
     0
171
     0
290
     0
174
     0
 93
       13
 44
0.0
173
     0
291
     1
 45
0.0
  0
VISUALSTYLE
  5
1AF
102
{ACAD_REACTORS
330
37
102
}
330
37
100
AcDbVisualStyle
  2
Hidden
 70
     6
 71
     1
 72
     2
 73
     2
 90
        0
 40
0.6
 41
30.0
 62
     5
 63
     7
421
 16777215
 74
     2
 91
        2
 64
     7
 65
   257
 75
     2
175
     1
 42
40.0
 92
        0
 66
   257
 43
1.0
 76
     1
 77
     6
 78
     2
 67
     7
 79
     3
170
     0
171
     0
290
     0
174
     0
 93
        1
 44
0.0
173
     0
291
     0
 45
0.0
  0
VISUALSTYLE
  5
1B8
102
{ACAD_REACTORS
330
37
102
}
330
37
100
AcDbVisualStyle
  2
JitterOff
 70
    20
 71
     2
 72
     2
 73
     0
 90
        0
 40
0.6
 41
30.0
 62
     5
 63
     7
421
 16777215
 74
     1
 91
        4
 64
     7
 65
   257
 75
     1
175
     1
 42
1.0
 92
       10
 66
     7
 43
1.0
 76
     1
 77
     6
 78
     2
 67
     7
 79
     5
170
     0
171
     0
290
     0
174
     0
 93
        1
 44
0.0
173
     0
291
     1
 45
0.0
  0
VISUALSTYLE
  5
1B5
102
{ACAD_REACTORS
330
37
102
}
330
37
100
AcDbVisualStyle
  2
Linepattern
 70
    14
 71
     2
 72
     2
 73
     0
 90
        0
 40
0.6
 41
30.0
 62
     5
 63
     7
421
 16777215
 74
     1
 91
        4
 64
     7
 65
   257
 75
     7
175
     7
 42
1.0
 92
        8
 66
     7
 43
1.0
 76
     1
 77
     6
 78
     2
 67
     7
 79
     5
170
     0
171
     0
290
     0
174
     0
 93
        1
 44
0.0
173
     0
291
     1
 45
0.0
  0
VISUALSTYLE
  5
1B9
102
{ACAD_REACTORS
330
37
102
}
330
37
100
AcDbVisualStyle
  2
OverhangOff
 70
    21
 71
     2
 72
     2
 73
     0
 90
        0
 40
0.6
 41
30.0
 62
     5
 63
     7
421
 16777215
 74
     1
 91
        4
 64
     7
 65
   257
 75
     1
175
     1
 42
1.0
 92
        9
 66
     7
 43
1.0
 76
     1
 77
     6
 78
     2
 67
     7
 79
     5
170
     0
171
     0
290
     0
174
     0
 93
        1
 44
0.0
173
     0
291
     1
 45
0.0
  0
VISUALSTYLE
  5
38
102
{ACAD_REACTORS
330
37
102
}
330
37
100
AcDbVisualStyle
  2
Realistic
 70
     8
 71
     2
 72
     3
 73
     0
 90
        2
 40
0.6
 41
30.0
 62
     5
 63
     7
421
 16777215
 74
     0
 91
        0
 64
     7
 65
   257
 75
     1
175
     1
 42
1.0
 92
        8
 66
   257
 43
1.0
 76
     1
 77
     6
 78
     2
 67
     7
 79
     3
170
     0
171
     0
290
     0
174
     0
 93
       13
 44
0.0
173
     0
291
     0
 45
0.0
  0
VISUALSTYLE
  5
1BF
102
{ACAD_REACTORS
330
37
102
}
330
37
100
AcDbVisualStyle
  2
Shaded
 70
    27
 71
     2
 72
     2
 73
     1
 90
        2
 40
0.6
 41
30.0
 62
     5
 63
     7
421
 16777215
 74
     0
 91
        4
 64
     7
 65
   257
 75
     1
175
     1
 42
1.0
 92
        8
 66
   257
 43
1.0
 76
     1
 77
     6
 78
     2
 67
     8
425
  7895160
 79
     3
170
     0
171
     0
290
     0
174
     0
 93
        5
 44
0.0
173
     0
291
     0
 45
0.0
  0
VISUALSTYLE
  5
1BE
102
{ACAD_REACTORS
330
37
102
}
330
37
100
AcDbVisualStyle
  2
Shaded with edges
 70
    26
 71
     2
 72
     2
 73
     1
 90
        2
 40
0.6
 41
30.0
 62
     5
 63
     7
421
 16777215
 74
     1
 91
       10
 64
     7
 65
   257
 75
     2
175
     1
 42
1.0
 92
        8
 66
   257
 43
1.0
 76
     1
 77
     6
 78
     2
 67
     7
 79
     3
170
     0
171
     0
290
     0
174
     0
 93
        5
 44
0.0
173
     0
291
     0
 45
0.0
  0
VISUALSTYLE
  5
1BB
102
{ACAD_REACTORS
330
37
102
}
330
37
100
AcDbVisualStyle
  2
Shades of Gray
 70
    23
 71
     2
 72
     2
 73
     3
 90
        0
 40
0.6
 41
30.0
 62
     5
 63
     7
421
 16777215
 74
     2
 91
        2
 64
     7
 65
     7
 75
     1
175
     1
 42
40.0
 92
        8
 66
     7
 43
1.0
 76
     1
 77
     6
 78
     2
 67
     7
 79
     3
170
     0
171
     0
290
     0
174
     0
 93
        1
 44
0.0
173
     0
291
     0
 45
0.0
  0
VISUALSTYLE
  5
1BC
102
{ACAD_REACTORS
330
37
102
}
330
37
100
AcDbVisualStyle
  2
Sketchy
 70
    24
 71
     1
 72
     2
 73
     2
 90
        0
 40
0.6
 41
30.0
 62
     5
 63
     7
421
 16777215
 74
     2
 91
        2
 64
     7
 65
     7
 75
     1
175
     1
 42
40.0
 92
       11
 66
     7
 43
1.0
 76
     1
 77
     6
 78
     2
 67
     7
 79
     6
170
     0
171
     0
290
     0
174
     0
 93
        1
 44
0.0
173
     0
291
     0
 45
0.0
  0
VISUALSTYLE
  5
1B4
102
{ACAD_REACTORS
330
37
102
}
330
37
100
AcDbVisualStyle
  2
Thicken
 70
    13
 71
     2
 72
     2
 73
     0
 90
        0
 40
0.6
 41
30.0
 62
     5
 63
     7
421
 16777215
 74
     1
 91
        4
 64
     7
 65
   257
 75
     1
175
     1
 42
1.0
 92
       12
 66
     7
 43
1.0
 76
     1
 77
     6
 78
     2
 67
     7
 79
     5
170
     0
171
     0
290
     0
174
     0
 93
        1
 44
0.0
173
     0
291
     1
 45
0.0
  0
VISUALSTYLE
  5
39
102
{ACAD_REACTORS
330
37
102
}
330
37
100
AcDbVisualStyle
  2
Wireframe
 70
     5
 71
     0
 72
     2
 73
     0
 90
        0
 40
0.6
 41
30.0
 62
     5
 63
     7
421
 16777215
 74
     1
 91
        4
 64
     7
 65
   257
 75
     1
175
     1
 42
1.0
 92
        0
 66
   257
 43
1.0
 76
     1
 77
     6
 78
     2
 67
     7
 79
     3
170
     0
171
     0
290
     0
174
     0
 93
        1
 44
0.0
173
     0
291
     0
 45
0.0
  0
VISUALSTYLE
  5
1BD
102
{ACAD_REACTORS
330
37
102
}
330
37
100
AcDbVisualStyle
  2
X-Ray
 70
    25
 71
     2
 72
     2
 73
     1
 90
        1
 40
0.5
 41
30.0
 62
     5
 63
     7
421
 16777215
 74
     1
 91
        0
 64
     7
 65
   257
 75
     1
175
     1
 42
1.0
 92
        8
 66
     7
 43
1.0
 76
     1
 77
     6
 78
     2
 67
     7
 79
     3
170
     0
171
     0
290
     0
174
     0
 93
       13
 44
0.0
173
     0
291
     0
 45
0.0
  0
DICTIONARYVAR
  5
1A6
102
{ACAD_REACTORS
330
1A5
102
}
330
1A5
100
DictionaryVariables
280
     0
  1
1/2" = 1'-0"
  0
DICTIONARYVAR
  5
217
102
{ACAD_REACTORS
330
1A5
102
}
330
1A5
100
DictionaryVariables
280
     0
  1
Standard
  0
DICTIONARYVAR
  5
216
102
{ACAD_REACTORS
330
1A5
102
}
330
1A5
100
DictionaryVariables
280
     0
  1
Standard
  0
DICTIONARY
  5
63
330
62
100
AcDbDictionary
280
     1
281
     1
  3
FBXASSET
360
64
  0
DICTIONARY
  5
18
330
17
100
AcDbDictionary
280
     1
281
     1
  3
FBXASSET
360
19
  0
DICTIONARY
  5
E
330
C
100
AcDbDictionary
280
     1
281
     1
  3
FBXASSET
360
F
  0
DICTIONARY
  5
88F
330
1C0
100
AcDbDictionary
280
     1
281
     1
  3
ACAD_ROUNDTRIP_2008_TABLESTYLE_CELLSTYLEMAP
360
890
  0
XRECORD
  5
64
102
{ACAD_REACTORS
330
63
102
}
330
63
100
AcDbXrecord
280
     1
 70
     1
 90
1959938040
 71
     1
  1
759A4F75-9B99-4254-9857-A158F8235CAB
311
504B03040A00000800005B6F83443DEE336E79000000790000001B0000006175746F6465736B2D64657369676E2D7061636B6167652E786D6C3C3F786D6C2076657273696F6E3D22312E302220656E636F64696E673D227574662D3822203F3E3C666F726D6174733E3C666F726D61743E687474703A2F2F736368656D612E
311
6175746F6465736B2E636F6D2F64657369676E2D7061636B6167652F323030393C2F666F726D61743E3C2F666F726D6174733E504B03041400060808005B6F8344FAA28935A700000035010000130000005B436F6E74656E745F54797065735D2E786D6CA58FC10E823010447FA5D93B143D1863281ED43FE0076ADD4223DD
311
36ED62F0EF2DE16ABC78DC9DC99B99F6BCF849BC30651748C1AE6E402099F070342898D9564710E7AEEDDF11B3285ECA0A46E67892329B11BDCE75884845B12179CDE54C838CDA3CF58072DF34076902311257BC32A06BAF68F53CB1B82DE5BDE5DE1D81B86CBEBED814E818276734975A321846AE3227D41EE4578023FB1F
311
A00CF80158D5122CD76EB9FB00504B03041400060808005B6F834478F71813F70000009701000008000000636F72652E786D6C8D505B6EC32010BC0AE21FDBD8B8B1224CE4BACE097A0104C44589C1E211F5F85D278ED4FE5542DAD130B33B1A7EFA5E6EE86E42B4DEF598161546C629AFAD9B7B9CD38574189D040FDEA75F
311
328C9C5C4C8F371A0B3E079FD79D52DE25E312B0CE6BB393324693305237003D8EEACB2CB2903981225E8B55AAAB9C4D415F08CC395B8D9E47AC867DF6624DC0E2BD6BDF3EDA3323753352C246C6C870E82632B0899D87663A0CE3C8CBCD2C78B2CBEBBE0A4626A3B1A82BCA4805AFF9A4CDB1ED8E2DE0F65855BCDCE47F4C
311
79D5FF3465EB5253EF719FB6880585208F0FC1630A50E82E8012128AF20E794AC1CBAD26188F0E616E958A1F504B03041400060808005B6F8344D13CB5F77D0000009D00000007000000636E782E786D6C4DCCD10A83201886E15B91FFDC652235410DCCBA8F581632D3703A76F9ABD1C18E3E78F87845F7D93C7ADBF47231
311
48A86F04900D8F38BBB04A2879C177409D1229C6FC770314A6CD4A38199458532CFB45B35DA6E2F3A1DE85E78523676D4F0CC5A66F38667AA0589361C49A115273A369CB1AA894A87EA563CFB0FA02504B03041400060808005B6F8344CE1F5DFF2A0100001E0200002D00000046393437433044322D444336392D34424532
311
2D423045462D4234303031394442323734362F636F72652E786D6C8D515B6EC32010BC0AE22BFDB08D1D3B2F6122398F13F4020436094A0C168F2AC72FD44EDAFE45428066677607866E1FFD1D7D8175CAE8169739C108B43052E94B8B833F672B8CB68C5A63FC1F1A469AF7D0E20463462FD684618284D11EB48FA8361226
311
903B071E23718F97163B71859EE73CF8C870B77CE0E2C62F9097792C471EA3CEDB68008D43D28ED9715D2F77645F65FBDD629DD5DDA1CA3A7238665D4D48B9DE77D5B25ED06214321A8292935CC968479D15D8779B2431A35EF54FFBC202F72031AB48596724AEF96739DF34AB4D13EFCD86105A24FA3F5118E49BA2A0B49F
311
5793DD51E6302B6931161895269CEE4F33F0188CF528CD9B39101FB888CF8D1D16F5D4C17963E377CE6EA757EDD51DFA134864061FE3C6ACF91D51A4B4182D7EA28C674A967D03504B03041400060808005B6F83446A77868595000000F50000002C00000046393437433044322D444336392D344245322D423045462D4234
311
303031394442323734362F636E782E786D6C5D8E4B0EC2300C44AF12795F023B164E2A246EC00942E396887C503E88E313438550375EBC9979328EAFE0C5937271292A38ECF620284EC9BAB82868751E8E20468D39A5FA5703114D20058C41E392537BACC8D26C9AAF9D7A17EF2B3C9542F56CAAE99897C2A7C9F82EA038B4
311
02FA97A3E458A3E4B146BEABE232DD2898DE456E6C0514AE642D5951BEB58D477E3EEC5A7E58BF01504B03041400060808005B6F834424363964FD000000A00100003700000046393437433044322D444336392D344245322D423045462D4234303031394442323734362F4173736574446174612F636F72652E786D6C8D50
311
5B6EC32010BC8AB5FFF8054E2C0B13B98E73825E0061E2A2C460F1A87AFC42EC4AED5F25C4AE66677647432F5FEB33FB94D629A37BA8F21232A98599955E7A08FE8E5AC82E8C5A63FC2F1A649AAFB2870403A38B35613B2061B497DA47549B591E20774E7AC8C433363D38F121579EF3E023C33DF28D8B075F645EE5711C79
311
8C3A6FA3816C3F927E60435A71E59ED3629F321A829A0F8E9AE34D7557D2027B6B9BD3B5B96154E3B1426424040DE776420399C86DC0D37918475A2431A35EAD3F1E8595DCCB19585D560495F1E1F70A774DDB35B16FBAB2A445A2FF11856DFEA72828ED717DD8DD650ED8291A790D182D525EB1BCC28C3565CBBE01504B03
311
041400060808005B6F8344C7DB1FD475010000860500003600000046393437433044322D444336392D344245322D423045462D4234303031394442323734362F4173736574446174612F636E782E786D6CD554C16AC3300CFD15E37B93745DA114C7656C979E3A58D9DD7594CED4B183AD8CEDEF272729298C9E7AD80AC131
311
F27B4FF24396D87C35967D4288C6BB92CFB3823370DA57C61D4BDE613D5B71B69122788F1730CE9C6AA0E429CCA53806DFB563A8825A7516296A8D3B8DC117A88D334839B60841A10FAFC1B710D040E44C5B1563C9A3FE804665AA435F413C65954295CDB300D177410329A6A4CC7AAD2CE50637EB229793343B6BB3495CE4
311
892345170C4BBB92A7F59275264D9CEC609CC8892145C440468C4CFC6EA908D5B6D66895EE927B8D803302816A444E7F024B81A68191A20328848ACB8762FE382BE85BECE78BF572B55ED27EB92E0A9127B81407EFED48328E3CF22DD39E360EB924503A96224F964A91D611BB751195D33055FF2776FE2EE39E4C7C8A1170
311
AF0E1676F5F360FAAD5DD94BB25E93ED6A7656BDD68E3DBC474F15DC93836F488DDEBC0F63A4BFC78D6D3808B251310E4E5E736F008FD83E7B665CFDAF9F70DE8F4C7AD18106ABFC01504B03041400060808005B6F83449A2E342584000000200100004F00000046393437433044322D444336392D344245322D423045462D
311
4234303031394442323734362F4173736574446174612F446566696E6974696F6E4974657261746F7250726F706572746965732E62696EEB6030B5FC0F050C40C008C40D0C8C0CBC40DA3D352FB5283339383923353791811D28E254E994939F9C0D6242259980A220AE4B6A5A62694E09489B6F6671726A4E4E625E6A7E69
311
B120501EAA542137B104685E628E1E481327500226500C32211D621B23505C828101E424492093C137B1A438C61D2217930EA1F50AF2D2417274C000504B03041400060808005B6F8344CE3A55F8F4000000300200004500000046393437433044322D444336392D344245322D423045462D4234303031394442323734362F
311
4173736574446174612F496E7374616E636550726F706572746965732E62696EEB6030B5FC0F050C40C008C40D0C8C0CBC40DA3D352FB52833393839233537510528606E6AE968E2666EAA6BE96469A96B62646AA26B69616AAEEB68686AE16661646CEAECE8C40E5407D508D2626C68E2E26A646AA96B6A6262AC6B626664
311
A8EBE4E6E4A26B686E6CE06CE6EC6CE9E86A09B2934133A6FFD0578D2BF6509A09684C030303038C6F0F6403D1077BA0DB8034038380038300031CA83830E007408D10057006848B49C2158019CC40050D0C60F000EA061E300F9D00852142E603542DBA2A0686949D0E0C780176AD20E341E109D2FAC19E05483102311F10
311
079727962467E83A1525E6A5A4A680DC0B14A4190200504B03041400060808005B6F8344CD8AE31151000000570000004700000046393437433044322D444336392D344245322D423045462D4234303031394442323734362F4173736574446174612F41737365745461626C654F66436F6E74656E74732E62696E53616060
311
3037B57434713337D5B574B2B4D435313235D1B5B43035D7753434B570B33032367576741202AACB4D2C492DCA4CCC492C28484D2C4ACC4B4E050A82112F90744FCD03CA26072767A4E6260200504B03041400060808005B6F8344F865834058000000680000004500000046393437433044322D444336392D344245322D42
311
3045462D4234303031394442323734362F4173736574446174612F53747265616D56657273696F6E5461626C652E696E66558CBD0A80300C06F73E4B117FB66E451741D041DC5BF98480A492E4FDD18EAEC7DD4555D89EF28DF51A0B1BD8340C4DE7DD848B988C0ACF0649566493F2408C508DDEBB99D5129FF8F1AF8CF5B9
311
503E20FAE5A16B5AF702504B03041400060808005B6F8344965029F0F90000009E0100003500000046393437433044322D444336392D344245322D423045462D4234303031394442323734362F536368656D61732F636F72652E786D6C8D50DB6AC42010FD1599F7DC4D372CC6254DB33FD0FE8044372BBBD110B5F4F33B26
311
29B46F05718673610E875DBEE627F954ABD3D6B450A4391065462BB5995A08FE9634402E9CADD6FA5F322046CCAA85080367D36AC37240A3355E198FA8B1521DA0704E7920E3139716DC7857B34845F0A8708F7411E3434C2A2D52A451C799F32B0620FB91F8037FDF4C8E653BC759085A1E0A2DF1A2BE69B5027F6DEA97B7
311
FA4A93B2EA8B84F69426DDA919928E0EF4DA55C3A9EB7B964533675ECF3F09C75509AF24F0322F6892E3AB3E8AEA5C37E71AF7FA9CE72C8BF23FA6B0C87F9A8236BE2A8FB8BBCD012F30C8467096C5B6706C55E28CCDF26F504B03041400060808005B6F8344695766FA26010000D30300003400000046393437433044322D
311
444336392D344245322D423045462D4234303031394442323734362F536368656D61732F636E782E786D6CD5934D4F03211086FF0AE1DEFD686DD234ECF4E0C19317EB1F40765A495966C387D17FEFB0E55013AF1A4D08198607DECC0BA30EEF93136F18A2253FC8BEE9A4406F68B4FE3CC89C4EAB9D1407508128DD605278
311
3DE1204B5A823A07CA734D8D78D2D925CE3AEB2F35794FD344FE685E71D25218A7631C645C968DCE89468C9766D449377D1330520E06F98622221C19ED580BFD2A4709C7E594385987AA2D00A81C6CD5296B09B76A0DD7A75A2640C514B8AA4AA68F9915F43C3B6B74E2E2DB05BC32A0929DB09226A04E384A5877FDDDAAE3
311
B179EE37FBED6EBFE578BBEF3AD5161CD40B91AB87AC4F1868168638F0490243651B545B6C0155E6CA3EA0C760CDB5B09F77E78BDC3FB0E709FD88E191DF2058ED7ECBA5EF54FFAA59EDD27FFCB50277297C02504B03041400060808005B6F83442F7B2A8D8D0100005E0600003D00000046393437433044322D444336392D
311
344245322D423045462D4234303031394442323734362F536368656D61732F436F6D6D6F6E536368656D612E786D6CC5944D6EC2301085F79C22F20550BB4E90A0486D24D44551BA1FE201AC3A76E43841B97D9D716A151228B448CD2A9267BE37CF3F2F9E5715DA75BEC702669388BE384B97510332614FBA28B4F2AB6C36
311
89A76E2554ADAD116A17099EB00554D8574565BD91224FD81664852CE2B8154A58A1556AD180D566091612664DED569B4E85C89E16E0A9B2B84343744F7E4753390A3B1530085C2BD91E211F89D94302D46B10936CAFC4265D326F95451236E83C7F5BE91CFB9E3104743B67DBD2D938F13C3A124D749E26750EF22A1A551E
311
B9BD06ADA0F879D09BD159FA3AC6BD7CE837AB7C607BD0860F8E1EA4D487A296569412DD55AAB1FADA973B4F9083BB8EDAB4FF3802C72A37A2EC5ED2608A7BB8CDDE56F432ECBE2E360A841CA8FC7ABBDDD1248C2EA913094F69A1B5445024FA2238473550BCEC8BB05B8A99EEA5F6BCC0CF6AC109DE27C7B30BAFDF28F8C1
311
1D2C90FB5C21787326969A2ED91EA8B72F1F6D37D888D158BBD0EF3691A49D9F10AE0363E733C8B58751DC3FA1E6BC019523FF2B329ECEBB54F4893D9B7C02504B03041400060808005B6F83447229482E27050000001600003E00000046393437433044322D444336392D344245322D423045462D42343030313944423237
311
34362F536368656D61732F47656E65726963536368656D612E786D6CDD586D4FE33810FECEAFB0F27D4BCB1DAB5BA9456A41F4FA0171A2705F2D37718AEF9CA4B29D42EFD7DF783C3549CBB601F676B587549197F1CC3CF3F278E2E1D85AE9E6E9A32CC4C509C3BFE1C3EC8AAD851E2553594AA3D2F03AB938199EC2AB2836
311
115606B93B5966D2DC0807D24237C4BD4894779B15C9172429562B298C285389CABD40949E954E2EA5612A1B2541E39FD2585595095BD50BADD251920B6D65C28C145955EACD2871A686FBB5777D801A4949543A7746954BD4A9AB54686FF1A83E946C291FB7FD0E5ABF6AA414057875C4E97D23147CC4B1636152555A8A12
311
71A495AE0C5F6C78B5F84BA62E0919C94368B45848C8E3A59761930DBB0D323E93A4237A1D647CB49721EB3C53795EFB000BADABA7B42A4BD02F33E12BC68E120B91D4006C2DF4DD28E9F77E199CA3F169F366D2BC198F9241C29A3E2138B41CFDB8D69570886CC70FAE0AB1943C1799443B4D6533FF8A5DFB57172754C68C
311
0D27555D6696ADA44965E960F5368BAA4C8D2CE09955FF485454A852157501EE268CAE15204C756DD51A44426915E23948010EBADE970AD1F59623A85344156FF1AE85D1C85C4374D55AB90D178EF733B94CD8D1C0A3BB14D0BB860A8C2B5A7983CD2FDFC3E8525716E22AADED06AF771E2B66FAB2D487B80D8FCAB9155465
311
79219DD0542E79AB277E57CB470D3F673158B4FE40B81C10955D0923CB74D3CDF7E8F97D73E9CF59A0AE01E1FFDE8946A40E361AAE60577BA6E219F4CECF623EA1D548066AE720DD50CD1DE29B5EDF9349A09F7D32614433A3041A81AEF7A57C3F04B28B05DC85720804C7E4EA1A4832DDF027E9BBE23D154E1A8EC52450E9
311
A190FC100A4E6B57D58E572B91020977C20F8923F2BDC4C5814A8E13D342A47FE722953CADF5EBEC34210976E925427A71CF8FF9452B2DBAB352E75C695D171C7EAAC4B92A8C03FD58BA731062332F0402BECA215BC3A3B5626115A94EFD2CC19D2C605715AE36921AE4F379FFC5CAA51762F70D210F015D8E00824C73E068
311
58C9958661921762D5211177B883AF8586D10352021793ED93D6C8718D4A191A46D878151D42F75A115DD4C58A8B02A60898ABBA6CC6BDB32F3B7F31F0E3A0E608FBE7618F3AD01C9F06FD7EBF5B8304C130B2BC8733303CFB01E99C1470738D490917909470D14ACA0462FC4A32683F6E591715AF60FC079D71F6A7F61B17
311
0B05D31CBB4D716003295F6FA4232698BE0676755A51ACB4847904150F3EC794CDE9C58773063B478799F2EC1C4CBF89E2095004B85FC110B24C59D7A0825F23BC1BF1CCAEB62F7DBC70795446D1DB8D56061395D2DB68052EA72C3CC0F760A8996B5315ECD63DC2F7DB0D7DEB056E24A5D1089A6C9930D06D595A19F8F2B4
311
DC884CD560AB4BEF455C775E037439AAC0D2422BD126F9F075AB680D3F7F244C7B0E5808B848416712D5E57009B447A8275A96197B52EEB11362CA59DB3A8CEE3C932BF74816A04F483B8C1AF8615095CCE7EBDEC0B6C1AE50F4C3650956BA94A5177B0B8910C2186FBADF456C5A883F017113E4DBB534466592017680EB37
311
A96F85D85BF9819029937CE9BF6436DC12BF843D7A002C411100E024CAA628CAE624FA9D723E38FB0DB698FF22E9345A2F11D6C1086C533F45D19F3B0245150F2D1AFCEB1F7ADEA506890D532BEC15386B93397C17F806387A48B5F6875EC0B5F6741A8E6FB6FF1F66BDE742230DD66AD7C4385BFBAD21FB36A65EB4BD6652
311
F95DD69FB9080F0811CE5A8F6E600787B324015FD7470ECBF6C186B5780C146DAB96F608BDFDF8153F6EA7F377841B567DD8F21F46AE957C7A87755A89BBEF413786A7637F7E174E542F4EFE05504B03041400060808005B6F83440A3355BE74010000170400004500000046393437433044322D444336392D344245322D42
311
3045462D4234303031394442323734362F536368656D61732F52656E6465724D6174657269616C536368656D612E786D6CAD93DF6AC23014C6EF7D8A90075895B1BB54D00EA430D968A7B725B6C73690269244C5B75FFED955866C0C7B9593F3E577724EBE9285D660CABA839ECE27C87F6493BFA213E5292E4034A0D6D480
311
629407159E4F486215837A4935047926FB5E8A91CCA5065D2E0CB4A0106B521C345B509A4981D1E1B8E3AC4EF19E720D1829A08D14FC9262A38E363EB9BBCC7CE10819A09BE2CD03F3FEC0A10761A8B1C4B55BF0825EFE86F6644BFA85FABE2A1FCAFB507062707E287305C2BE55FD4F66691413AD1FA83E5353773F38FE29
311
FCBC82761859D64956833F5A7B1B54654715349537180E068919ED331871BA03EBB2D286B6ACA546032244026E4BF9F186A9AD149A489BDE10ECB673E6E8E0F56EF771CCDAFBE03C2E4C64CE06663ECADD01932454BB16224B293950319EC22713A632B26DF9D5C8FB60F2D8BCCBDBCE4912CF0EAC4C72197E963835A7AC6A
311
B7EBEF5AA478FAF43C7BF1C16A1C2CC7C122C5DF3D3904CA3CC2B7E456A12049FC3B85FF723EF902504B010214000A00000800005B6F83443DEE336E79000000790000001B00000000000000000000000000000000006175746F6465736B2D64657369676E2D7061636B6167652E786D6C504B010214001400060808005B6F
311
8344FAA28935A7000000350100001300000000000000000000000000B20000005B436F6E74656E745F54797065735D2E786D6C504B010214001400060808005B6F834478F71813F70000009701000008000000000000000000000000008A010000636F72652E786D6C504B010214001400060808005B6F8344D13CB5F77D00
311
00009D0000000700000000000000000000000000A7020000636E782E786D6C504B010214001400060808005B6F8344CE1F5DFF2A0100001E0200002D000000000000000000000000004903000046393437433044322D444336392D344245322D423045462D4234303031394442323734362F636F72652E786D6C504B010214
311
001400060808005B6F83446A77868595000000F50000002C00000000000000000000000000BE04000046393437433044322D444336392D344245322D423045462D4234303031394442323734362F636E782E786D6C504B010214001400060808005B6F834424363964FD000000A00100003700000000000000000000000000
311
9D05000046393437433044322D444336392D344245322D423045462D4234303031394442323734362F4173736574446174612F636F72652E786D6C504B010214001400060808005B6F8344C7DB1FD475010000860500003600000000000000000000000000EF06000046393437433044322D444336392D344245322D423045
311
462D4234303031394442323734362F4173736574446174612F636E782E786D6C504B010214001400060808005B6F83449A2E342584000000200100004F00000000000000000000000000B808000046393437433044322D444336392D344245322D423045462D4234303031394442323734362F4173736574446174612F4465
311
66696E6974696F6E4974657261746F7250726F706572746965732E62696E504B010214001400060808005B6F8344CE3A55F8F4000000300200004500000000000000000000000000A909000046393437433044322D444336392D344245322D423045462D4234303031394442323734362F4173736574446174612F496E7374
311
616E636550726F706572746965732E62696E504B010214001400060808005B6F8344CD8AE31151000000570000004700000000000000000000000000000B000046393437433044322D444336392D344245322D423045462D4234303031394442323734362F4173736574446174612F41737365745461626C654F66436F6E74
311
656E74732E62696E504B010214001400060808005B6F8344F865834058000000680000004500000000000000000000000000B60B000046393437433044322D444336392D344245322D423045462D4234303031394442323734362F4173736574446174612F53747265616D56657273696F6E5461626C652E696E66504B0102
311
14001400060808005B6F8344965029F0F90000009E0100003500000000000000000000000000710C000046393437433044322D444336392D344245322D423045462D4234303031394442323734362F536368656D61732F636F72652E786D6C504B010214001400060808005B6F8344695766FA26010000D303000034000000
311
00000000000000000000BD0D000046393437433044322D444336392D344245322D423045462D4234303031394442323734362F536368656D61732F636E782E786D6C504B010214001400060808005B6F83442F7B2A8D8D0100005E0600003D00000000000000000000000000350F000046393437433044322D444336392D34
311
4245322D423045462D4234303031394442323734362F536368656D61732F436F6D6D6F6E536368656D612E786D6C504B010214001400060808005B6F83447229482E27050000001600003E000000000000000000000000001D11000046393437433044322D444336392D344245322D423045462D4234303031394442323734
311
362F536368656D61732F47656E65726963536368656D612E786D6C504B010214001400060808005B6F83440A3355BE74010000170400004500000000000000000000000000A016000046393437433044322D444336392D344245322D423045462D4234303031394442323734362F536368656D61732F52656E6465724D6174
311
657269616C536368656D612E786D6C504B050600000000110011005A060000771800000000
310
504B03040A00000800005B6F83443DEE336E79000000790000001B0000006175746F6465736B2D64657369676E2D7061636B6167652E786D6C3C3F786D6C2076657273696F6E3D22312E302220656E636F64696E673D227574662D3822203F3E3C666F726D6174733E3C666F726D61743E687474703A2F2F736368656D612E
310
6175746F6465736B2E636F6D2F64657369676E2D7061636B6167652F323030393C2F666F726D61743E3C2F666F726D6174733E504B03041400060808005B6F8344D486FD9CA0000000F4000000130000005B436F6E74656E745F54797065735D2E786D6C7D8EC10E82300C865F65E91D8A1E8C310C0EEA1BF002731658846E
310
D98AC1B77784ABF1D8FE5FBFBF75BBCE937A534CCEB38643598122B6FEE978D0B0485F9C41B54DDD7D022595594E1A469170414C76A4D9A4D207E29CF43ECE46F218070CC6BECC4078ACAA135ACF422C856C0E68EA1BF5669944DDD7BCDE7B1F8E415D77AECB980613C2E4AC91FC167A2B244592486606FC29C8FD7F045B9A
310
EF7053A7E60B504B03041400060808005B6F834428C84C54E90000007C01000008000000636F72652E786D6C8D904D6EC3201085AF82668F0DFE69888589D2D63E412F8080B828315806AA1EBF3871A476D7D50C8FF7CD8C1E3F7DCF37F465D660BDEB8116049071CA6BEBA61E52BC6006E824F8EA7DFC6503E4E46C7AD864
310
107C5A7D5A764979178D8B59755E9B5D9421980848DD72D343509F6696854C313BC2B558A4BACAC914F4D9653825ABD16389D5799EBD58B38238BEB16A246CC0A461156E86F1051F69FD8E8FAFE77A3C54677618065E6EB0E0D1CECFFD6A35321A0DA222B4C92C26F507ADBB96756D7EB61D21BCDCEC7FA0B4E87F42C9BA58
310
57FBB90F2C80A0F990FB87E0E596452EF7A072DD72133F504B03041400060808005B6F834455019EA25F0000007C00000007000000636E782E786D6C4DCB3B0E80201045D1AD90E915ED2CF8AC45050C11660C8261F98AB1B07AC9C97D42D718D865D3E909258CFD00CCE24AC6E326A164D74DC0B4128928FF326038472BA1
310
3128B1252AC747C6BAB984FC68F0B87FE8960A5C09FE86CFB69FBA01504B03041400060808005B6F8344065F11A565010000020300000C0000006662782F636F72652E786D6C8D525B6E833010BC8AE57F30AF3424328ED2969CA017708C4351C0467EA01CBFCB23A2A9A2A84202B3B3B3333B400FB7AE458334B6D1AAC071
310
18612495D055A3EA027B7709728C0E8C1AADDDAF368C14EF6481C73266B436DAF74B4968E5A4725055BA924B915B2B1D46A2854381ADF8961D0FB977D061AF61CFC595D7328C4380A18F51EB0C1840B3C878C7EC72BE5132D719F5BEA916B4A940ADB934D260B6FBC8935394974194E5499095A7B76017A79FC1EEFD989EB6
310
C931DF962525239951D7747777C248EE64855912C519708328FD8AD3FD26DF6FE075B38F224AC6F60792EFAB7F927CA35C9A2C76679AC52C062313F0675B88C821CB07F04318256388F098127E0C1A0281901D3FB7F73DAE501AA470DA648054DAAFD0C05B2F413542D345C98CC2E469006CF6744EF262CEEB19F001B9AAC1
310
1A77703C7B37AAD3597589A2972618DC0D296D3ADEAEE6668BEB7D157A4A17BAD5E63F6CB2AC4A9630C9F8F7B21F504B03041400060808005B6F834478A613687F0000009D0000000B0000006662782F636E782E786D6C4DCCDF0E82201C86E15B61BF73F24F12B2010E2CEFC3253A164223685D7EDA3CE8E8DB9E7D7B79F7
310
591D7A9BF8B2C10BA84E2520E3EF61B27E1190D38C5B409DE43184F47703E4C7D508D819245F62C8CF8326338FD9A54D9DF58F036B4ADBBED6173C9C55899B8AF5985D29C1E4A69566840E8A3650485EFC4ADBEE61F905504B03041400060808005B6F8344FDDB9D552901000014020000310000006662782F323737384332
310
42362D463341302D343139432D394437352D3545424142393537464137342F636F72652E786D6C8D515B6EC23010BC8AE52FFA91C4212F821C23A0E504BD80B10DB52076E447C5F1BB6E82D4FE21ADECD5EECCEC6897EE1EE31D7D2BE7B535032E73829132C24A6DAE038EE1926D30DA31EAAC0D7F6018193EAA01A73266F4
310
EA6C9C9692B0262813A06AAC544B917BAF0246E20EC980BDF85223CF790C80F0B77CE2E2C6AF2A2F7368038E511F1C1840F390F462B6EEBACD717D68B353B527595DF6C7AC7FEF9AACF938EC0F7DD39DF65D4D8B99C8688C5A2E742DC18EBE68E55E15496446831E9FF685533C28097C52D61981A83ECB6ADB6CB60DE4CD96
310
105A24F83F529CE48BA4A84DA8D68BDD99E6312B6931371895369EEF4F33EA315917509AB7F24ABC614672D2B73544458B190A0B00CDB65E347DB00E16BCBA9D015D2DC26DCD68916E04DFEF01E14FF7643F504B03041400060808005B6F834405E8A0355401000033030000300000006662782F32373738433242362D4633
310
41302D343139432D394437352D3545424142393537464137342F636E782E786D6CBD93CB6EC23010457FC5F29E3C4840083946EAA25FD045B78E3D808B63477E54E5EF3B0643D9B0A854558A2CEBCE9D3BA32387EDBE26433EC107EDEC40DBAAA104AC744ADBC34053DC2F3694EC38F3CEC5071B25564C30D02C53CE0EDEA5
310
B9480AF6229988AAD1F654440FC1252F21A09C3B897152180C00BB4828C2348252A0C8DD88B73D785C05C5F14CE211C8EBCB3B71E307C818589D5338ABF30CCEF259263D982891468430D0208F30894AA4E8148453A54414555BDD663DD9E92789E486DBC8E435C9C3079A4FCACB461572643516390BD123BD628AE7192817
310
F36CB4141121D717E3D5C359D236AEFBE2D508DEA3BB5BAE371B0CBBD4388B7A82E2901E440445F9B269FB45835FF7D676DBD566BBC2FB6ADB34ACCE76CE46E74C69C218F06E26D2D9083652DEB23A979FE12B3EA2B447D6CE9F7F01120194A9573AF78CBFE4D3AEBBBEFF473EF5E57D232E8F7F01FF06504B030414000608
310
08005B6F8344F1955FD44D0700004F1C0000340000006662782F32373738433242362D463341302D343139432D394437352D3545424142393537464137342F6F626A656374732E786D6CED595B6F9B4814FE2B887DD97D3036BE24F18A50254E135955DAAA56AB7DB084C630C6B319C09A19127B7FFD9EB980019B046FB36F
310
7D483030732EDFB9CEC1FBB04BA8F58C1927597A6DBBCEC0B6701A661149E36B3B17EBDE956D7DF03D9665A2B2CCB65294E06B5B3EB67D2F6659BE358F22BC4639158DA7F7B77F593CC429B6AD9022CEAF6D1E6E70821C948B2CC2FCC98990404EBCDE39AEA317D6C9C60C6D370DA25BC4702A4052789E02154B0BE5D66F07
310
76DFF7FAF2BDEFC9FF66D5B0D3AA51FBAABED2BA2E2549B9406978245283CCB0934823777CF7713899F626E3F1A837BE18BABDDBFBDBBB9E7B391ACC2E66B3E9CDC72988B7CA326A748AF016A711D86F6FFBAED7976F4AD50D02A7A40EB334C5A10212A0526A350912CC815505BE41FDD6951A555E2B0D2BF723F9DE885079
310
DC3042CBAA8E40D4E88222865DA17171ADEA97ADFE06C57917A7641C4BA7E68281750D3C0CA2C2F6075E5F3FF5BDD5C116845B09129811442D4A560C31300A2C954B7C4F6F30646470302065490D94E5F4EBBA6F4164BE1D3AA7A45CE794CAC8B07D155801841F165C4946FEC1EC207D151990092C9C93545C1929C57E8B6D
310
7FEAF5D543DF9397D1D0BCD4405A6B8A6270145053BF6D283A93A13FBFB3FD4FF7ABDD42A683D3CCB72CDB6226A4D3493B2AB9C091CD55A264D8BA9D2C273780321A54B3F300CA3740FE33648F832860374676E3DDD8AC150CA57C9DB1046C630DACDE00FE0D2C57FD97BF2BBFBC7EB9B96EBD363C214C2554573F8F675D07
310
859591BF02A7EF3D83C3676C645E2D4244C19F1F490A004927B168068F20B5AF573BDB9F43E284440FBB10F55D5019C47D869F5EDF903958A5082F137529206A780CBB180960531E0962B4D8E901AA0723E1C14C5515DBE09DBC8BBBDEDC2D3E2D72B646217E34317D87D7242502AAE669816A98D734826A1732B2955B6DDF
310
2855A60AE740ADB6E909EF5F3216013AC7465A548D9418F93898481A4A5A2B2E9093372D0C42D817673247796F7000CD6581AFD07F243CC494A2146779C1B74C89D2BBCB34611A0DDB1F69BB8C860DBF67F899C8560422EDB0A286C40FDDAB3C7C9779A44599EFF3CFE0B536D47BB8BCE2D10F1D80E12F48849BB7692DD4BA
310
DE2DE48A0847069D1285D5A1308419CD58B0DA073A679EA4FCA31678904EB5E52415884515C145728AB50E4144D6EB9C43863E61BF1FF359D54706CEC89D58D5FF8DB01E43DE862C809889E0068F802428C6C11A456DECAADC4ADA5C916C21CDF09A825EE499887D80443088707C0E3467119FBE2BF598669C931473A87C27
310
C1AFA231702025696B16224BAB3680263C48B040F41C0424991670550153DD72084DC8DB3296DEFB9AC5AA44FF278F6008BAD22C0D0834B5BB0E58B8CE64D84976F0B682B65283E6D08C84FBE0059378233A702A43B230A2BE36CC18C2E1261741B64521B87507B247B1228DDA20BA42E193AC444198D3F772108EE93A2094
310
E649007F2485334C97D0EE864285B8CE7D0227D0DE2191B32E4C2E2683233EBAFB68A6C00AA335A1D07B0709DAB6A05E4B88AAB3B14AF00DF596605AE5C936404996A79D1CC519353DD2906F9A5592ED28AF6C3AA1012D081B82BE07DD7A596A8B9C0DAE4E0338188A4D0B12B5EC54905494DA09CA4C0D71A932DF3EE028D9
310
527D403CAAB7F54AE696E1F93A036602FF7D192459A782356E805074B6D57E135095D93E67C498516CF2649522723A226BE5FC1109BE7CD0657B19EBABB34DE3822D1085AEA8A40C8D4ED96B9E34613BF1074DFCFBDC81294F0BF9B9B45D8253816447FA287FD06FE8749968E7A4F7CD655FD099D79787C599FAC08ECED4BF
310
CA5612BF9CC9C1EC9AC91EED8855E108E5551E72A0C904B7325E30FA75D4A9CE477E1D75E0580DF95F9F8120A855D633BE22FDF38CA38E89E59F3CF1DCEE6FE180FF54E4027DB2AACDAD42E9FA671D4FCABA299B95F7389EA8C14A49B5AC6E275B2C48C445B1E8DC2596DA9BF6D67030768975D20CFE7337D1569D4FCA7F5E
310
37E11E7542DA82467475244E8F6A702D6D5F4EA637E3FBCB496F7A3B9DF6C6C3C9B837BD9A5CF66EDCC9D5FDD5703499DDDC9600A960F6BD32E1A91208F73AF1158FE59D910046C93CA32482694264C53883530CCC143ACCFC5982B9EA500EC934325F123AEC7ED6C35981561417926C104CB52987020018E5A1A83FB77E83
310
79AA1C695EDB30E9729EE09F7103DB82027C6D3FCB016488B9B382D9989C422AE28D18067C501ACBDE476F2AEFCB5D129B5A892897742915462F9D3F8C02D0236E6164579B9028D9CCFBF02CC50B712C24E0E72A17D0C7695D0E0F4A65149B83F9B56E94A44F86F50EA2F175B55C47ADA921D269BCFFAA1368AA3D8158AC86
310
F4523023D2CDDDD73E0C07ADF9176B4BF3186CD99D528F6170E65CF645E045E01586E616C9667AF6E7F22BCBE0BB5462DD137001EBF7DDD5C51FCB59962459AA1F2D6FE00018C1D72D6BB1816F55D1125A3F2CBF08F0E570E08E966A126F3E0E042BC4B18322FE040FBC7ECE480974CDFCE0974755C3CC5CFBD2140D0F9DDF
310
59262F425BAB091D0DA6F597390B62487E039211A3E2BCD0F6D5617C5F2D0551198CD1FD7F01504B03041400060800005B6F8344000000000000000000000000350000006662782F32373738433242362D463341302D343139432D394437352D3545424142393537464137342F76657274696365732E62696E504B03041400
310
060808005B6F8344F270F1330600000004000000360000006662782F32373738433242362D463341302D343139432D394437352D3545424142393537464137342F747269616E676C65732E62696E636660600000504B03041400060800005B6F8344000000000000000000000000370000006662782F32373738433242362D
310
463341302D343139432D394437352D3545424142393537464137342F617474726962757465732E62696E504B03041400060808005B6F8344B28BD8DE8F00000041010000360000006662782F32373738433242362D463341302D343139432D394437352D3545424142393537464137342F6469726563746F72792E786D6C85
310
8F410EC2201045AF4266AF15DDB800BA74E7C21B903225242D6328188F2FA5C4183471359997F9FF81E89FF3C41E1816475E02DF1F80A11FC8386F25A438EECEC07A250251FC3803E6F58C12560C4AD840E95E91C151A72936F496F35732D860FE635F62C8F2DA16B505C545B74125BAA2FA9E05D7CC053D063734D5A7665F
310
D55B6B8D15D5F1BFEAFD8490FFA45E504B03041400060808005B6F83443B6362CCFC000000A00100003B0000006662782F32373738433242362D463341302D343139432D394437352D3545424142393537464137342F7265736F75726365732F636F72652E786D6C8D50596E833010BD0A9A7FC06C8D41C651DAC0097A01CB
310
4CA89560232F558F5F13A8D4FEF5C7E3798BE6E9B1F3D7F2483ED13A65740F454620412DCDA4F4DC43F0B7944272E6CC1AE37FC920D162C11E3618389BAD09EB0149A33D6A1F516D263C40E11C7A48E4237E7A70F203179189E0A3C2DDB355C8BB98312BB248471D67CEDB1820D98F6C2F708BCE042BD1B17C67390B414D87
310
464DF1A6BA29B4C0DB375A8E845E5352D332AD87F1256D8BEA9AB6AF976A3C95177A1A06966F66CEBC5A7E324A8BC2E304BC24451DBD29A9DE8BAA6B68D7C4B5E90861F926FF630AEBF44F5350DA57E51177B739E0450CF22438CBB7BEE2789619E7D62DFF06504B010214000A00000800005B6F83443DEE336E7900000079
310
0000001B00000000000000000000000000000000006175746F6465736B2D64657369676E2D7061636B6167652E786D6C504B010214001400060808005B6F8344D486FD9CA0000000F40000001300000000000000000000000000B20000005B436F6E74656E745F54797065735D2E786D6C504B010214001400060808005B6F
310
834428C84C54E90000007C010000080000000000000000000000000083010000636F72652E786D6C504B010214001400060808005B6F834455019EA25F0000007C000000070000000000000000000000000092020000636E782E786D6C504B010214001400060808005B6F8344065F11A565010000020300000C0000000000
310
0000000000000000160300006662782F636F72652E786D6C504B010214001400060808005B6F834478A613687F0000009D0000000B00000000000000000000000000A50400006662782F636E782E786D6C504B010214001400060808005B6F8344FDDB9D55290100001402000031000000000000000000000000004D050000
310
6662782F32373738433242362D463341302D343139432D394437352D3545424142393537464137342F636F72652E786D6C504B010214001400060808005B6F834405E8A03554010000330300003000000000000000000000000000C50600006662782F32373738433242362D463341302D343139432D394437352D35454241
310
42393537464137342F636E782E786D6C504B010214001400060808005B6F8344F1955FD44D0700004F1C00003400000000000000000000000000670800006662782F32373738433242362D463341302D343139432D394437352D3545424142393537464137342F6F626A656374732E786D6C504B010214001400060800005B
310
6F83440000000000000000000000003500000000000000000000000000061000006662782F32373738433242362D463341302D343139432D394437352D3545424142393537464137342F76657274696365732E62696E504B010214001400060808005B6F8344F270F133060000000400000036000000000000000000000000
310
00591000006662782F32373738433242362D463341302D343139432D394437352D3545424142393537464137342F747269616E676C65732E62696E504B010214001400060800005B6F83440000000000000000000000003700000000000000000000000000B31000006662782F32373738433242362D463341302D34313943
310
2D394437352D3545424142393537464137342F617474726962757465732E62696E504B010214001400060808005B6F8344B28BD8DE8F000000410100003600000000000000000000000000081100006662782F32373738433242362D463341302D343139432D394437352D3545424142393537464137342F6469726563746F
310
72792E786D6C504B010214001400060808005B6F83443B6362CCFC000000A00100003B00000000000000000000000000EB1100006662782F32373738433242362D463341302D343139432D394437352D3545424142393537464137342F7265736F75726365732F636F72652E786D6C504B0506000000000E000E0080040000
310
401300000000
  0
XRECORD
  5
19
102
{ACAD_REACTORS
330
18
102
}
330
18
100
AcDbXrecord
280
     1
 70
     1
 90
1959938040
 71
     1
  1
30AAA494-BC66-4F12-A0BD-1650B9EFACC2
311
504B03040A00000800005B6F83443DEE336E79000000790000001B0000006175746F6465736B2D64657369676E2D7061636B6167652E786D6C3C3F786D6C2076657273696F6E3D22312E302220656E636F64696E673D227574662D3822203F3E3C666F726D6174733E3C666F726D61743E687474703A2F2F736368656D612E
311
6175746F6465736B2E636F6D2F64657369676E2D7061636B6167652F323030393C2F666F726D61743E3C2F666F726D6174733E504B03041400060808005B6F8344FAA28935A700000035010000130000005B436F6E74656E745F54797065735D2E786D6CA58FC10E823010447FA5D93B143D1863281ED43FE0076ADD4223DD
311
36ED62F0EF2DE16ABC78DC9DC99B99F6BCF849BC30651748C1AE6E402099F070342898D9564710E7AEEDDF11B3285ECA0A46E67892329B11BDCE75884845B12179CDE54C838CDA3CF58072DF34076902311257BC32A06BAF68F53CB1B82DE5BDE5DE1D81B86CBEBED814E818276734975A321846AE3227D41EE4578023FB1F
311
A00CF80158D5122CD76EB9FB00504B03041400060808005B6F83449CCEFC2EF80000009701000008000000636F72652E786D6C8D90DD8AC32010855F45BC37D5A4C926C158B6297D827D01519B4A1B0DFE947DFC9DB429ECDE2D08331CCF37331C7EF89EEFE86142B4DE0D98151423E394D7D64D03CEE9425A8C0E8207EFD3
311
2F1B464ECE66C0AB8C059F82CFCB2629EF92710954E7B5D94419A34918A93B34038EEA6A6659C89CC0116FC522D54D4EA660EF0EE09CAD46AF2556C33C7BB1266071ECDA6AFCEC1A529ED899ECCBE39974B46EC84757362D1BC7A63A51BE5B61C1939DDFFB553032198D4549D99E5078D517ABFABAEDEB9AD0BAA700ADF63F
311
505EF43FA16C5DAACAEDDC1716B16070C8F343F0980204BA19208484A27CC03D3BC1776B4C509E19425D23153F504B03041400060808005B6F834478AC0C517E0000009D00000007000000636E782E786D6C4DCCD10A83201886E15B91FFDCA5AD5A821A99ED3E625948A5C3E9D8E5AF46073BFAE0E1E3E5CD675BD1DB8497
311
F54E00BD1040C63DFC68DD2C20C509D7801AC983F7F1EF06C80D9B117030483E079F9E278D661AD21A775DAD5B4EEC996A4B72EB70ABBB0A17EAAE70AD7A86F595EAA2CACB9C300A99E4D9AFB4EF11965F504B03041400060808005B6F834494D0E4B72C0100001E0200002D00000045394241353037432D414443362D3442
311
46422D384245392D4433314434363235323039312F636F72652E786D6C8D51DB8EC22014FC15C293FB404B6FAE1A8AB1EA7EC1FE4085A3122D345C367EFE8256B3FB664280CC39336760D8FA365CD10F58A78C6E7191518C400B23953EB538F8235960B4E6CC1AE3FFB461A4FB015A9C60CCD9C99A304E9030DA83F611D546
311
C204F6CE81C7485CE3A5C54E9C61E8B33EF8D8E12ED9D88B4B7F82ACC86239F671E6BC8D06D06348DA31DF2FBB4D433FB764B3DBCE49DD7D7564D1ED97645715BB7A5E36255D162C77772267212839D1958C76D451817D57249139F36A78DA17167A0F12F3921635A17155DF45B56A16ABA621B45951CAF2D4FE8F1446F926
311
2928EDAB72B2FBA039CCE36B1E05CEA40987EBD30CDC46633D4AF3660EC407CEE373A3C2BC9E149C37367EE7EC7278D55EEA301C402233FA1837E60DCB9F23F2941667F93DCA78A664F92F504B03041400060808005B6F83446A77868595000000F50000002C00000045394241353037432D414443362D344246422D384245
311
392D4433314434363235323039312F636E782E786D6C5D8E4B0EC2300C44AF12795F023B164E2A246EC00942E396887C503E88E313438550375EBC9979328EAFE0C5937271292A38ECF620284EC9BAB82868751E8E20468D39A5FA5703114D20058C41E392537BACC8D26C9AAF9D7A17EF2B3C9542F56CAAE99897C2A7C9F8
311
2EA038B402FA97A3E458A3E4B146BEABE232DD2898DE456E6C0514AE642D5951BEB58D477E3EEC5A7E58BF01504B03041400060808005B6F83442CD17EFFFB000000A00100003700000045394241353037432D414443362D344246422D384245392D4433314434363235323039312F4173736574446174612F636F72652E78
311
6D6C8D50ED6E8320147D1572FFA3A8C5A9419A56D327D80B10A48EB4821158F6F883EA92EDDF12C225E7837B72D8F96B79A24FB5396D4D0F4546002923EDA4CDDC43F077DC003A73B659EB7FC90019B1A81E120C9CCD9B0DEB01496BBC323EA2C64EEA008573CA0392CFF8E8C1C90FB5884C041F15EE91AD423EC4ACB2228B
311
74D471E6FC1603A07D49BA815FD217A3F082E53BCB59087A3A347A8A3BF55DAB0DF8B56DAAE1D2525C8EC50D9FCAEB0DB784D6F8AD2DEBA61886BA1A09CB939933AF979F8C7253C2AB0978498A1326F154EF45D5D1A6A31413DA91684AF23FA6B04EFF34056D7C551E71779B035EC7202F82B33CF515C7ABCC3853B7FC1B50
311
4B03041400060808005B6F834400AF834975010000860500003600000045394241353037432D414443362D344246422D384245392D4433314434363235323039312F4173736574446174612F636E782E786D6CD5544D4BC43010FD2B21F77EAC5A9025CD227AD9D30A8AF76C3A5D83695292A9E8BF77D266A9209E3CA850D2
311
3079EFCDE43119B17B1B2C7B85108D772DDF943567E0B4EF8C3BB57CC2BEB8E66C2745F01E3FC138736A8096A73097E214FC34E65007BD9A2C52D41AF7928377D01B679072EC1182421FEE831F21A081C899B62AC69647FD0C832AD584BE83F852760A55B92903443F050DA4989232EBB5B2941B5C31452E576976D666ABB8
311
A812478A291896762D4FEB67D699B472CAA371A22286141103199199F83E52116A1CADD12ADDA5F21A010B02811A44457F024B8166804CD1011442C7E545BDB92A6AFA2E1F3797DBE67ADB3445DD6CEB5A54092EC5D17B9B49C691477E64DAD3C62197044AC75254C95229D29AB17B1751390D6BF5BF62E7D732FE93893731
311
023EAAA385437FBB98FED3AE9C25D9ACC90E3D3BAB7ED78E337C46AF15FC27071F901A7D785AC6C87C8F1FB6E122C8B2625C9CFCCEBD059CB173F6D2B8FE4F3FE16A1E99F4A2030D56F901504B03041400060808005B6F834455ABC7C584000000200100004F00000045394241353037432D414443362D344246422D384245
311
392D4433314434363235323039312F4173736574446174612F446566696E6974696F6E4974657261746F7250726F706572746965732E62696EEB6030B5FC0F050C40C008C40D0C8C0CBC40DA3D352FB5283339383923353791811D28E254E99358995A046242259980A220AE4B6A5A62694E09489B6F6671726A4E4E625E6A
311
7E69B120501EAA542137B104685E628E1E481327500226500C32211D621B23505C828101E424492093C137B1A438C61D2217930EA1F50AF2D2417274C000504B03041400060808005B6F83440775C96AF1000000300200004500000045394241353037432D414443362D344246422D384245392D4433314434363235323039
311
312F4173736574446174612F496E7374616E636550726F706572746965732E62696EEB6030B5FC0F050C40C008C40D0C8C0CBC40DA3D352FB52833393839233537510528606CE0E8E8686269A2EBE46C66A66BE26668A4EB68E0E4A26B68666AE064E9EAE6E8EC6CC40E5407D508D66268E2E26A646AA96B6A6262AC6B6266
311
64A8EBE406D2626E6CE06CE6EC6CE9E86A09B2934133A6FFD0578D2BF6509A09684C030303038C6F0F6403D1077BA0DB8034038380038300031CA83830E007408D10057006848B49C2158019CC40050D0C60F000EA061E300F9D00852142E603542DBA2A0686949D0E0C780176AD20E341E109D2FAC19E05483102311F1007
311
9727962467E83A1525E6A5A4A680DC0B14A4190200504B03041400060808005B6F83442FF8B73151000000570000004700000045394241353037432D414443362D344246422D384245392D4433314434363235323039312F4173736574446174612F41737365745461626C654F66436F6E74656E74732E62696E5361606030
311
3670747434B134D175723633D335713334D275347072D13534333570B27475737476361202AACB4D2C492DCA4CCC492C28484D2C4ACC4B4E050A82112F90744FCD03CA26072767A4E6260200504B03041400060808005B6F8344F865834058000000680000004500000045394241353037432D414443362D344246422D3842
311
45392D4433314434363235323039312F4173736574446174612F53747265616D56657273696F6E5461626C652E696E66558CBD0A80300C06F73E4B117FB66E451741D041DC5BF98480A492E4FDD18EAEC7DD4555D89EF28DF51A0B1BD8340C4DE7DD848B988C0ACF0649566493F2408C508DDEBB99D5129FF8F1AF8CF5B950
311
3E20FAE5A16B5AF702504B03041400060808005B6F83442933F9E2FA0000009E0100003500000045394241353037432D414443362D344246422D384245392D4433314434363235323039312F536368656D61732F636F72652E786D6C8D505B6E842014DD8AB9FF28E868D520938E93D940BB01828C253382E1D174F905B549
311
FBD784706FCE23F7E4D0F3D7F2CC3EA575CAE801488E21935A9849E97980E0EFA885ECCCA835C6FF9241A6F922074830303A5B13D60312467BA97D44B599E40172E7A4874C3CE33280131F72E1390F3E2ADC235FB978F059E6248F74D431EABC8D01B2FD48FA81BD6D26478B9D633404351D0A35C58BEAAEA40576E9DA6A7C
311
ED1A545EC90D9DCACB0D75B86ED04B57362D19C7A6BA625A2433A35E2D3F098595DCCB095889C909E1F8AA7752F575DBD735C2758FA329C9FF98C23AFDD31494F65579C4DD6D0E1889413682D122B515C756659CA959F60D504B03041400060808005B6F834478C87CF826010000D30300003400000045394241353037432D
311
414443362D344246422D384245392D4433314434363235323039312F536368656D61732F636E782E786D6CD5934D4FC4201086FF0AE1DEAF5D9B6C1ACA1E3C78F2E2FA07904E57B29469F830FAEF1DBA1CD6C4AB46134298E119DECC0B88E3FB62D91BF860D08DBCAB5BCEC0699C8C3B8F3CC5B93A707694C223C61B8C33A7
311
1618794E7329CE1ED35A5213CC2AD948596BDCA524EF7159D09DF42B2C8A336D5508230F5B58AB14718270A9271555DDD51E0226AF814EC822CCA25696B4C055297079DAAAD86C2C88260352246F8A4E8EB9BC55ABA93FD1102145889EBA2A64FC584941ADAB355A456ABED9C02B2345340B14527B5011262E776D7757B534
311
F6CFDD7EE80F43DF576D3FB4AD68322EC50BA22D45C645F0B8328DB470914B82F2B6144DB6458A3C17F6011C78A3AF8DFDBC3B5FE4FE813D4FE026F08F7407DE28FB5B2E7DA7FA57CD6AB6FF474FCBD32F959F504B03041400060808005B6F83442F7B2A8D8D0100005E0600003D00000045394241353037432D414443362D
311
344246422D384245392D4433314434363235323039312F536368656D61732F436F6D6D6F6E536368656D612E786D6CC5944D6EC2301085F79C22F20550BB4E90A0486D24D44551BA1FE201AC3A76E43841B97D9D716A151228B448CD2A9267BE37CF3F2F9E5715DA75BEC702669388BE384B97510332614FBA28B4F2AB6C36
311
89A76E2554ADAD116A17099EB00554D8574565BD91224FD81664852CE2B8154A58A1556AD180D566091612664DED569B4E85C89E16E0A9B2B84343744F7E4753390A3B1530085C2BD91E211F89D94302D46B10936CAFC4265D326F95451236E83C7F5BE91CFB9E3104743B67DBD2D938F13C3A124D749E26750EF22A1A551E
311
B9BD06ADA0F879D09BD159FA3AC6BD7CE837AB7C607BD0860F8E1EA4D487A296569412DD55AAB1FADA973B4F9083BB8EDAB4FF3802C72A37A2EC5ED2608A7BB8CDDE56F432ECBE2E360A841CA8FC7ABBDDD1248C2EA913094F69A1B5445024FA2238473550BCEC8BB05B8A99EEA5F6BCC0CF6AC109DE27C7B30BAFDF28F8C1
311
1D2C90FB5C21787326969A2ED91EA8B72F1F6D37D888D158BBD0EF3691A49D9F10AE0363E733C8B58751DC3FA1E6BC019523FF2B329ECEBB54F4893D9B7C02504B03041400060808005B6F83447229482E27050000001600003E00000045394241353037432D414443362D344246422D384245392D44333144343632353230
311
39312F536368656D61732F47656E65726963536368656D612E786D6CDD586D4FE33810FECEAFB0F27D4BCB1DAB5BA9456A41F4FA0171A2705F2D37718AEF9CA4B29D42EFD7DF783C3549CBB601F676B587549197F1CC3CF3F278E2E1D85AE9E6E9A32CC4C509C3BFE1C3EC8AAD851E2553594AA3D2F03AB938199EC2AB2836
311
115606B93B5966D2DC0807D24237C4BD4894779B15C9172429562B298C285389CABD40949E954E2EA5612A1B2541E39FD2585595095BD50BADD251920B6D65C28C145955EACD2871A686FBB5777D801A4949543A7746954BD4A9AB54686FF1A83E946C291FB7FD0E5ABF6AA414057875C4E97D23147CC4B1636152555A8A12
311
71A495AE0C5F6C78B5F84BA62E0919C94368B45848C8E3A59761930DBB0D323E93A4237A1D647CB49721EB3C53795EFB000BADABA7B42A4BD02F33E12BC68E120B91D4006C2DF4DD28E9F77E199CA3F169F366D2BC198F9241C29A3E2138B41CFDB8D69570886CC70FAE0AB1943C1799443B4D6533FF8A5DFB57172754C68C
311
0D27555D6696ADA44965E960F5368BAA4C8D2CE09955FF485454A852157501EE268CAE15204C756DD51A44426915E23948010EBADE970AD1F59623A85344156FF1AE85D1C85C4374D55AB90D178EF733B94CD8D1C0A3BB14D0BB860A8C2B5A7983CD2FDFC3E8525716E22AADED06AF771E2B66FAB2D487B80D8FCAB9155465
311
79219DD0542E79AB277E57CB470D3F673158B4FE40B81C10955D0923CB74D3CDF7E8F97D73E9CF59A0AE01E1FFDE8946A40E361AAE60577BA6E219F4CECF623EA1D548066AE720DD50CD1DE29B5EDF9349A09F7D32614433A3041A81AEF7A57C3F04B28B05DC85720804C7E4EA1A4832DDF027E9BBE23D154E1A8EC52450E9
311
A190FC100A4E6B57D58E572B91020977C20F8923F2BDC4C5814A8E13D342A47FE722953CADF5EBEC34210976E925427A71CF8FF9452B2DBAB352E75C695D171C7EAAC4B92A8C03FD58BA731062332F0402BECA215BC3A3B5626115A94EFD2CC19D2C605715AE36921AE4F379FFC5CAA51762F70D210F015D8E00824C73E068
311
58C9958661921762D5211177B883AF8586D10352021793ED93D6C8718D4A191A46D878151D42F75A115DD4C58A8B02A60898ABBA6CC6BDB32F3B7F31F0E3A0E608FBE7618F3AD01C9F06FD7EBF5B8304C130B2BC8733303CFB01E99C1470738D490917909470D14ACA0462FC4A32683F6E591715AF60FC079D71F6A7F61B17
311
0B05D31CBB4D716003295F6FA4232698BE0676755A51ACB4847904150F3EC794CDE9C58773063B478799F2EC1C4CBF89E2095004B85FC110B24C59D7A0825F23BC1BF1CCAEB62F7DBC70795446D1DB8D56061395D2DB68052EA72C3CC0F760A8996B5315ECD63DC2F7DB0D7DEB056E24A5D1089A6C9930D06D595A19F8F2B4
311
DC884CD560AB4BEF455C775E037439AAC0D2422BD126F9F075AB680D3F7F244C7B0E5808B848416712D5E57009B447A8275A96197B52EEB11362CA59DB3A8CEE3C932BF74816A04F483B8C1AF8615095CCE7EBDEC0B6C1AE50F4C3650956BA94A5177B0B8910C2186FBADF456C5A883F017113E4DBB534466592017680EB37
311
A96F85D85BF9819029937CE9BF6436DC12BF843D7A002C411100E024CAA628CAE624FA9D723E38FB0DB698FF22E9345A2F11D6C1086C533F45D19F3B0245150F2D1AFCEB1F7ADEA506890D532BEC15386B93397C17F806387A48B5F6875EC0B5F6741A8E6FB6FF1F66BDE742230DD66AD7C4385BFBAD21FB36A65EB4BD6652
311
F95DD69FB9080F0811CE5A8F6E600787B324015FD7470ECBF6C186B5780C146DAB96F608BDFDF8153F6EA7F377841B567DD8F21F46AE957C7A87755A89BBEF413786A7637F7E174E542F4EFE05504B03041400060808005B6F83440A3355BE74010000170400004500000045394241353037432D414443362D344246422D38
311
4245392D4433314434363235323039312F536368656D61732F52656E6465724D6174657269616C536368656D612E786D6CAD93DF6AC23014C6EF7D8A90075895B1BB54D00EA430D968A7B725B6C73690269244C5B75FFED955866C0C7B9593F3E577724EBE9285D660CABA839ECE27C87F6493BFA213E5292E4034A0D6D480
311
629407159E4F486215837A4935047926FB5E8A91CCA5065D2E0CB4A0106B521C345B509A4981D1E1B8E3AC4EF19E720D1829A08D14FC9262A38E363EB9BBCC7CE10819A09BE2CD03F3FEC0A10761A8B1C4B55BF0825EFE86F6644BFA85FABE2A1FCAFB507062707E287305C2BE55FD4F66691413AD1FA83E5353773F38FE29
311
FCBC82761859D64956833F5A7B1B54654715349537180E068919ED331871BA03EBB2D286B6ACA546032244026E4BF9F186A9AD149A489BDE10ECB673E6E8E0F56EF771CCDAFBE03C2E4C64CE06663ECADD01932454BB16224B293950319EC22713A632B26DF9D5C8FB60F2D8BCCBDBCE4912CF0EAC4C72197E963835A7AC6A
311
B7EBEF5AA478FAF43C7BF1C16A1C2CC7C122C5DF3D3904CA3CC2B7E456A12049FC3B85FF723EF902504B010214000A00000800005B6F83443DEE336E79000000790000001B00000000000000000000000000000000006175746F6465736B2D64657369676E2D7061636B6167652E786D6C504B010214001400060808005B6F
311
8344FAA28935A7000000350100001300000000000000000000000000B20000005B436F6E74656E745F54797065735D2E786D6C504B010214001400060808005B6F83449CCEFC2EF80000009701000008000000000000000000000000008A010000636F72652E786D6C504B010214001400060808005B6F834478AC0C517E00
311
00009D0000000700000000000000000000000000A8020000636E782E786D6C504B010214001400060808005B6F834494D0E4B72C0100001E0200002D000000000000000000000000004B03000045394241353037432D414443362D344246422D384245392D4433314434363235323039312F636F72652E786D6C504B010214
311
001400060808005B6F83446A77868595000000F50000002C00000000000000000000000000C204000045394241353037432D414443362D344246422D384245392D4433314434363235323039312F636E782E786D6C504B010214001400060808005B6F83442CD17EFFFB000000A00100003700000000000000000000000000
311
A105000045394241353037432D414443362D344246422D384245392D4433314434363235323039312F4173736574446174612F636F72652E786D6C504B010214001400060808005B6F834400AF834975010000860500003600000000000000000000000000F106000045394241353037432D414443362D344246422D384245
311
392D4433314434363235323039312F4173736574446174612F636E782E786D6C504B010214001400060808005B6F834455ABC7C584000000200100004F00000000000000000000000000BA08000045394241353037432D414443362D344246422D384245392D4433314434363235323039312F4173736574446174612F4465
311
66696E6974696F6E4974657261746F7250726F706572746965732E62696E504B010214001400060808005B6F83440775C96AF1000000300200004500000000000000000000000000AB09000045394241353037432D414443362D344246422D384245392D4433314434363235323039312F4173736574446174612F496E7374
311
616E636550726F706572746965732E62696E504B010214001400060808005B6F83442FF8B73151000000570000004700000000000000000000000000FF0A000045394241353037432D414443362D344246422D384245392D4433314434363235323039312F4173736574446174612F41737365745461626C654F66436F6E74
311
656E74732E62696E504B010214001400060808005B6F8344F865834058000000680000004500000000000000000000000000B50B000045394241353037432D414443362D344246422D384245392D4433314434363235323039312F4173736574446174612F53747265616D56657273696F6E5461626C652E696E66504B0102
311
14001400060808005B6F83442933F9E2FA0000009E0100003500000000000000000000000000700C000045394241353037432D414443362D344246422D384245392D4433314434363235323039312F536368656D61732F636F72652E786D6C504B010214001400060808005B6F834478C87CF826010000D303000034000000
311
00000000000000000000BD0D000045394241353037432D414443362D344246422D384245392D4433314434363235323039312F536368656D61732F636E782E786D6C504B010214001400060808005B6F83442F7B2A8D8D0100005E0600003D00000000000000000000000000350F000045394241353037432D414443362D34
311
4246422D384245392D4433314434363235323039312F536368656D61732F436F6D6D6F6E536368656D612E786D6C504B010214001400060808005B6F83447229482E27050000001600003E000000000000000000000000001D11000045394241353037432D414443362D344246422D384245392D4433314434363235323039
311
312F536368656D61732F47656E65726963536368656D612E786D6C504B010214001400060808005B6F83440A3355BE74010000170400004500000000000000000000000000A016000045394241353037432D414443362D344246422D384245392D4433314434363235323039312F536368656D61732F52656E6465724D6174
311
657269616C536368656D612E786D6C504B050600000000110011005A060000771800000000
310
504B03040A00000800005B6F83443DEE336E79000000790000001B0000006175746F6465736B2D64657369676E2D7061636B6167652E786D6C3C3F786D6C2076657273696F6E3D22312E302220656E636F64696E673D227574662D3822203F3E3C666F726D6174733E3C666F726D61743E687474703A2F2F736368656D612E
310
6175746F6465736B2E636F6D2F64657369676E2D7061636B6167652F323030393C2F666F726D61743E3C2F666F726D6174733E504B03041400060808005B6F8344D486FD9CA0000000F4000000130000005B436F6E74656E745F54797065735D2E786D6C7D8EC10E82300C865F65E91D8A1E8C310C0EEA1BF002731658846E
310
D98AC1B77784ABF1D8FE5FBFBF75BBCE937A534CCEB38643598122B6FEE978D0B0485F9C41B54DDD7D022595594E1A469170414C76A4D9A4D207E29CF43ECE46F218070CC6BECC4078ACAA135ACF422C856C0E68EA1BF5669944DDD7BCDE7B1F8E415D77AECB980613C2E4AC91FC167A2B244592486606FC29C8FD7F045B9A
310
EF7053A7E60B504B03041400060808005B6F83446860EEBBED0000007C01000008000000636F72652E786D6C7590516EC3201044AF82F61F1BB01D91081339697B825E0001715162B00C543D7E71E248E94725A45D0DF37657238E3FD30D7DDB25BAE07BA0150164BD0EC6F9B1879C2E98033A4AB184905E6C80BC9A6C0FAB
310
0C528C4BC8F326E9E093F5A9A83E18BB892A469B00E95B697A88FACB4EAA52391547BC56B3D25735DA8A3EBB02E7EC0C7A2C71A6CC73176717907CC71967FB160F1D23B8DDB5040F27CAF079FF7166BC61A7B7F741D42B2C4572D373BF5EAC4AD6806484B69894D77CD2E6D0F14357FAEE4088A857FB1F28CFE63FA8C3E415
310
CACEA7866DE73EB008929643EE1F52D46B16A5DC832A75CD4DFE02504B03041400060808005B6F834455019EA25F0000007C00000007000000636E782E786D6C4DCB3B0E80201045D1AD90E915ED2CF8AC45050C11660C8261F98AB1B07AC9C97D42D718D865D3E909258CFD00CCE24AC6E326A164D74DC0B4128928FF3260
310
38472BA13128B1252AC747C6BAB984FC68F0B87FE8960A5C09FE86CFB69FBA01504B03041400060808005B6F834405DD665569010000020300000C0000006662782F636F72652E786D6C8D52ED6E83300C7C9528FF21214045AB90AAEDB627D80BA4903254485048501F7FE6A3A29DBA690205CBE7B3CF47F8FED6366850B6
310
AF8DCE7114528C942E4C59EB2AC7DE5D820CA3BDE0D618F750869196ADCAF198C68257D6F86E4915463BA51D64B529D592947DAF1C464503418EFBE24BB53294DE41457F0D3B595C65A5C2280418EA04EF9D0501681E329E585CCE374EE6BCE0DED7E582D6254CAB2FB5B258649B8C656C9B048794D120D92434381C23169C
310
B61F2796C5ECF8F67EE064240BEEEAF6AEAEB04A3A5562C168940414DEF8338A7769B64B214E77947232963F917C57FE464A03FA48F2B576315BE4CEB41E8B08844CC08F6DC122877A39801E2238194D84CFE4F0B3D1600898ECE4B9B9EF7185D4A00A676C024869FC0A0DB2F10AA652343D9CCC28749E1AC0662FFBB03FFA
310
FCDD037EA0D41548930EC2B377E3743E4F5DACE8940D067743DAD85636ABB859E27AAE835ED20BD318FB1F365956258B9964BCBDE21B504B03041400060808005B6F834469DDA9EF7D0000009D0000000B0000006662782F636E782E786D6C4DCC4D0AC3201845D1ADC837B751B4FE809A89CD3E42638234D162B574F94D4A
310
061D3D383CAEE93FDB8ADEA1BC624E16E885000AE99EA798160BADCE5801EA9D2939D7BF1BA0346EC1C2C1E0CC52727B9E3485796C6BDD758DE971E2557BCE073660293CC19C7A8695920C53CD35F38248216FD039D3FD4AFB1E61F705504B03041400060808005B6F834482C2E43C2E01000014020000310000006662782F
310
35394434344633462D373644302D343144332D383837332D3139343933443630373637452F636F72652E786D6C8D51CB6EC32010FC158B537AC086805F112617375FD01F7030495162B07854F9FCAE6B474A0F952A2176B53B333BDA15C7C774CFBEB40FC6D90ED19CA04C5BE54663AF1D4AF1821B941DA5F0CEC51718CAEC
310
30E90E2D6524C5D5BB346F25E56CD43642D5BA516FC521041D51A6EE907428A84F3D0DF9902220C22D9F07751BAE3AA739B4012745881E0C64EB90E547B26C7BCE4FEC84EBAA2798D39EE1A6A919A62D6F595F91BAAADF45B112A548C98C1BDD8C60C75C8CF6FF1559C85244333DED2BAF87A84724F784724CE0B10FCA0E65
310
7328212F0F84886281FF22A579FC8B5462F24A4AC646B6DFECAEB4802415C5DA906274E97C7F9AD18FD9F9982DF37641AB3724494E68B3AFDBA615C50A85058066C537CD109D8705EF6E6740B34DB8E25214CB8D20FC1C10E2724FF90D504B03041400060808005B6F83440BB46CC25801000033030000300000006662782F
310
35394434344633462D373644302D343144332D383837332D3139343933443630373637452F636E782E786D6CAD934D6EC3201085AF82D8FB2FB6A328C244EAA227E8A25B0C9394068305B86A6EDF2121693659A4AA6421F4E6CD9BD127CC76DF93215FE0837676A04D595302563AA5ED61A04BDC171B4A769C79E7E29D8D12
310
2B26186892296707EF96394B0AF662311155A3ED318B1E825BBC848072EA24C6496130006CB1A008D3084A81223723DEF6E0711514C713891F405E5FDE891B3F41C6C0AA94C25995667096CE3CE9CE44893422848106F9019328C5129D82702C9588A26CCAEBAC073BFD2691D4701DB9784DD2F081A693F2BC51891C598545
310
CE42F4482F9BE26906CAC53C1B2D4544C8D5D978F170B6681BD75DF66A04EFD1DDAED69B0D869D6B9C453D4176480F2282A27C55375D51E3D7BE35EDB6DF6C7BBCF7DBBA6655B273363A677213C680773391CE46B091F28655A9FC085FF611A53DB276FEF404480490A75EE8DC32FE934FB36EBBEE593E7D51FF954F757EDF
310
88CBE35FC07F00504B03041400060808005B6F8344229A02E94C0700004F1C0000340000006662782F35394434344633462D373644302D343144332D383837332D3139343933443630373637452F6F626A656374732E786D6CED595B739B4614FE2B0C7D691F848424BB76079391E4D8A3499D64A249A60F9A6156B0C25B2F
310
97D95D6CA9BFBE672F2040C2418DFB96071B01BBDFB95FF6E0BDDB25D47AC68C932CBDB15D67645B380DB388A4F18D5D88EDE0CAB6DEF91ECB32515B665B294AF08D2D1FDBBE17B3ACC8CDA3086F514145EBE9DDFC2F8B8738C5B61552C4F98DCDC3479C200715228B307F72222490136F778EEBE8854DD898A1FCB1059A23
310
8653019CC2F314502CCD94DBBC1DD943DF1BCAF7BE27FF9B55E35EAB26DDAB864AEA269724E502A5E1114B2D98712F9626EEF4F6FDF8E27A70319D4E06D3CBB13B98DFCD6F07EEEF93D1E272B1B89EBDBF06F63659468D4C11CE711A81FDF6B6EF7A43F9A612DD68E014D76196A638548A045529B1DA800473205553DFA879
310
EB4A896AAF9584B5FB897C6F58A83D6E19A163554F453470411043AE94B8BCD6E5CB367F83E0BC8F53328EA55373C1C0BA463D0CA2C2F647DE503FF5BDCDC116845B09129811442D4A360C31300A2C954B7C4F6F3030323818405952026539FDBAE95B1099DF0F9D535C6E0B4A6564D8BE0AAC00C20F0BAE3823FF6076E0BE
310
AE19E0092C5C90545C192EC53EC7B67FED0DD543DF9397C9D8BCD48AB4B614C5E02820A67EDB127421437F796BFB1FEE36BB954C07A789E72CCB3113D2E9A41D155FE0C8E62AB564C8BABD2C273780305AA966E741295F40F31F217B1C5801BB31B29BEEA666AD6028E5DB8C25601B6B640D46F06F64B9EABFFC5DFBE50DAB
310
CD4DEB75E913C254AAEAEAC7F5D99441E9CAF05F53A7EF3D83C3676C625EAD4244C19F1F480A0A924E62D10C1E416ADF6E76B6BF84C409891E7621EABB2032B0FB0C3FBDA1813958A50C2F13752968D4D018F73112A84D7924B0D161A77BA81E8C840733D545EC52EFC59BB8EBEC76F56155B02D0AF18389E95BBC25291150
310
354F33D4D0794322A8762123B9DC6AFB46A82A553807B4C6A627BC7FC95804DA3936D2AA6EA4C4F0C7C144D250D25A71A93979D34120847D71267394F71D0A20B92CF035FC07C2434C294A71569474AB9428BDBB4A13A6D1B0FD89B6CB64DCF27B869F896C4520D20E2B1A9AF8A67B95FBAF328F7408F375F911BCD6867A0F
310
97573C7ABE9F83BB3F19512A961BF4F80B12E1E3F7B1566ADD600EB922C2511B7273280C614633166CF681CE992791BF35020FD2A9B69C44815854115C262763DC2022DB6DC121439FB0DFB7E5A2EE232367E25E58F5FFADB09E42DE862C809889E0168D802428C6C116455DE4EAD42A6CAE203BA019DE52908B3C13B10F90
310
0846118ECF51CD59E0D76F8A1ED38C7392620E95EFA4F2EBDA18399092B4354B96A5555B8A263C48B040F41C0D48980EE5AA02A6BAE5109A90EFF35879EF6B16AB83FE4F1EC11074A5591A10686A773D74E13A17E35EBC83B795D84A0C5A403312EE83174CE247D183521592A511F5B565C6100E378508B21C85E0D63D608F
310
62451AB505BA41E193AC444158D0B772108EE93620941649007F2485334C9FD0EEA7851AB8CE7D0227D0DE2151B03E442E2F46477474F7D14E8135425B42A1F70E12947768BD911055676355CA37E81DC1B429923C404956A4BD1CC599B43DD2C0B7CD2A617BF22B9B4E68404B6003E87BD0AD57A5B6CCD9E0EA348083A178
310
ECD044233B95900AA91B50666A884B95F9F60147494EF501F1A8DE362B995B85E7EB049809FCB7259064BD0AD6B4A584B2B3ADF79BA05599ED0B468C19C563916C52444E4764A39C3F20C1D7F7BA275BC7FAEAE4695C920550E88A2A646874AA5EF3A409BBC1EF35F8D7A503539E0EF8A5B45D8253816447FA207FD02FE874
310
99E8A6A4F72D655FD09BD6A7FBD599F2C08EDEE89F652B895FCEA460762D648F7644AA7484EA2A0F39D064825B192F98FC3CEAD4E7233F8F3A70AC86FCAFCF4010D42AEB195F91FE79C651C7C4F20F9F78FE447B39F3312DA8B256636E154AD73FEB7852D54DD9ACBCC5F1440D562AD4AABA9D6CB1201197C5A27797586642
310
0DD8C5F17FEE26BAAAB32667AC1FEBD41C9CD74DB8479D50E3ACAA8EC4E9510D6EA4EDC968369B4DAFA783F9E2F27230BD73C783D9484E95A1CF9A5FBFBF9B2D165591D6E0BE57253C5502E15E27BEF2B1BC3362C12899679444304D88AC1867708A8199428F993F4B30571DCA219946E64B428FDDCF7A382BD086E2929347
310
04536DCAA100801845289ACFAD5F609E2A479A37364CBA9C27F8671CCDB6A000DFD8CF72001962EE6C603626A7900ABC15C3103E288D65EFA33755F7D52EA99B4689A896F42915462E9D3F8C00D023E630B26B4C48146FE67D7896E0253B1612F0735308E8E3B42C870795308ACCC1FC5A364AD227437A07D1F8BA58AEA3D6
310
3434D26BBCFFAA1368D481402C56437AC998616976FB7908C3416BF9C9CA6911832DFB230D1806672E645F045E045E613073249BE9C51FEBCF2C83EF52897547C005AC5F775797BFAD17599264A97EB49EC1013082AF5BD6EA11BE55456B68FDB0FC22C0D7E3913B59AB49BCF938106C10C70E8AF8133CF086052395A21BE6
310
07BF3CAA1A66E63A94A66879E8F2D6327911DA5A0D743498D65FE62C8821F90D48468C8AF352DA5787F143B51458653046F7FF05504B03041400060800005B6F8344000000000000000000000000350000006662782F35394434344633462D373644302D343144332D383837332D3139343933443630373637452F76657274
310
696365732E62696E504B03041400060808005B6F8344F270F1330600000004000000360000006662782F35394434344633462D373644302D343144332D383837332D3139343933443630373637452F747269616E676C65732E62696E636660600000504B03041400060800005B6F8344000000000000000000000000370000
310
006662782F35394434344633462D373644302D343144332D383837332D3139343933443630373637452F617474726962757465732E62696E504B03041400060808005B6F8344B28BD8DE8F00000041010000360000006662782F35394434344633462D373644302D343144332D383837332D3139343933443630373637452F
310
6469726563746F72792E786D6C858F410EC2201045AF4266AF15DDB800BA74E7C21B903225242D6328188F2FA5C4183471359997F9FF81E89FF3C41E1816475E02DF1F80A11FC8386F25A438EECEC07A250251FC3803E6F58C12560C4AD840E95E91C151A72936F496F35732D860FE635F62C8F2DA16B505C545B74125BAA2
310
FA9E05D7CC053D063734D5A7665FD55B6B8D15D5F1BFEAFD8490FFA45E504B03041400060808005B6F8344B70E2403FF000000A00100003B0000006662782F35394434344633462D373644302D343144332D383837332D3139343933443630373637452F7265736F75726365732F636F72652E786D6C75505B6E833010BC0A
310
DA7F83311011641C91B43D412F60990DB1126CE447D5E3D7042AA51F952CEF6A1EDAD1F0D3F7FCC8BED0796D4D0F654E2143A3ECA8CDD4430C57D2427612DC591B5E64901939630F2B0C824FCEC665879435014D48A8B123EEA0F41E0364EA91961EBCBAE12C73194352F87BBE48759713E6659EE8A413DC07970264DB91F5
310
07E1D0DBE8147A5E6CACE031EA71D7E831DDD4578D0E447B6859CB8E15191A46497DA82919CE252397E3C785B5153BBFBD0FBC58CD82073DFF66540E65C01104A3654D687AD56759754DDB35696F3A4A79B1CAFF98E232FE676A087D35456D42C5F6B89BCD83285390272178B1F695C6B3CC34D76EC50F504B010214000A00
310
000800005B6F83443DEE336E79000000790000001B00000000000000000000000000000000006175746F6465736B2D64657369676E2D7061636B6167652E786D6C504B010214001400060808005B6F8344D486FD9CA0000000F40000001300000000000000000000000000B20000005B436F6E74656E745F54797065735D2E
310
786D6C504B010214001400060808005B6F83446860EEBBED0000007C010000080000000000000000000000000083010000636F72652E786D6C504B010214001400060808005B6F834455019EA25F0000007C000000070000000000000000000000000096020000636E782E786D6C504B010214001400060808005B6F834405
310
DD665569010000020300000C000000000000000000000000001A0300006662782F636F72652E786D6C504B010214001400060808005B6F834469DDA9EF7D0000009D0000000B00000000000000000000000000AD0400006662782F636E782E786D6C504B010214001400060808005B6F834482C2E43C2E0100001402000031
310
00000000000000000000000000530500006662782F35394434344633462D373644302D343144332D383837332D3139343933443630373637452F636F72652E786D6C504B010214001400060808005B6F83440BB46CC258010000330300003000000000000000000000000000D00600006662782F35394434344633462D3736
310
44302D343144332D383837332D3139343933443630373637452F636E782E786D6C504B010214001400060808005B6F8344229A02E94C0700004F1C00003400000000000000000000000000760800006662782F35394434344633462D373644302D343144332D383837332D3139343933443630373637452F6F626A65637473
310
2E786D6C504B010214001400060800005B6F83440000000000000000000000003500000000000000000000000000141000006662782F35394434344633462D373644302D343144332D383837332D3139343933443630373637452F76657274696365732E62696E504B010214001400060808005B6F8344F270F13306000000
310
040000003600000000000000000000000000671000006662782F35394434344633462D373644302D343144332D383837332D3139343933443630373637452F747269616E676C65732E62696E504B010214001400060800005B6F83440000000000000000000000003700000000000000000000000000C11000006662782F35
310
394434344633462D373644302D343144332D383837332D3139343933443630373637452F617474726962757465732E62696E504B010214001400060808005B6F8344B28BD8DE8F000000410100003600000000000000000000000000161100006662782F35394434344633462D373644302D343144332D383837332D313934
310
3933443630373637452F6469726563746F72792E786D6C504B010214001400060808005B6F8344B70E2403FF000000A00100003B00000000000000000000000000F91100006662782F35394434344633462D373644302D343144332D383837332D3139343933443630373637452F7265736F75726365732F636F72652E786D
310
6C504B0506000000000E000E0080040000511300000000
  0
XRECORD
  5
F
102
{ACAD_REACTORS
330
E
102
}
330
E
100
AcDbXrecord
280
     1
 70
     1
 90
1959938040
 71
     1
  1
B6C5AC0B-0959-48E3-9745-EB95EBBAE78E
311
504B03040A0000080000ED7375443DEE336E79000000790000001B0000006175746F6465736B2D64657369676E2D7061636B6167652E786D6C3C3F786D6C2076657273696F6E3D22312E302220656E636F64696E673D227574662D3822203F3E3C666F726D6174733E3C666F726D61743E687474703A2F2F736368656D612E
311
6175746F6465736B2E636F6D2F64657369676E2D7061636B6167652F323030393C2F666F726D61743E3C2F666F726D6174733E504B0304140006080800ED737544FAA28935A700000035010000130000005B436F6E74656E745F54797065735D2E786D6CA58FC10E823010447FA5D93B143D1863281ED43FE0076ADD4223DD
311
36ED62F0EF2DE16ABC78DC9DC99B99F6BCF849BC30651748C1AE6E402099F070342898D9564710E7AEEDDF11B3285ECA0A46E67892329B11BDCE75884845B12179CDE54C838CDA3CF58072DF34076902311257BC32A06BAF68F53CB1B82DE5BDE5DE1D81B86CBEBED814E818276734975A321846AE3227D41EE4578023FB1F
311
A00CF80158D5122CD76EB9FB00504B0304140006080800ED73754456008AFEF70000009701000008000000636F72652E786D6C8D505B6EC32010BC0AE21F1B30965D0B13B5AE7B825E0001715162B078443D7E71E248ED5FBF76343BB33B1A7EFA5EAFE06642B4DE8D90541802E394D7D62D23CCE98C7A084E8207EFD32F19
311
044EAE66843B0D055F82CFDB4129EF9271A9B0CE6B73903246932050D7024618D597596525732A8A78A936A92E72311579A262CED96AF0786275B967CFD60428A6A9FF981B36A1A9EB67C46841AF6FEC1DF50D9DDBAE2373FBC278BD9B054F767DFE57C1C8643414141386708328F9246C68C8403B84DB01635EEFF23FA6BC
311
E97F9AB275A9A147DC872D42414A90FB42F0984229F41094121288F256F2D482D77B4D65DC3B2C73AF54FC00504B0304140006080800ED7375448C95DCDD7D0000009D00000007000000636E782E786D6C4DCCD10E82201886E15B61FF398A89451BE00CB81097E858088DA075F969F3A0A36F7BF6EDE5FD67F5E86DD3CBC5
311
20A0A908201BEE7172611150F28C19A05EF21463FEBB010AE36A05EC0C922F2996E741939DC7E2F3A6DE85C78194DE8C226785A9D614D3B65378E8B4C1865D0D518C35EDE902B5E4F5AFB4ED1E965F504B0304140006080800ED737544A1FF8E292A0100001E0200002D00000034344245433036432D344444342D34333543
311
2D413544452D4538394530433838313332372F636F72652E786D6C8D51DB72832014FC1586A7F40105C5C466904C6BFC83FE809193944904874B279F5F6C4CDABEE5459C3DBB7B1656ECAEE3057D81F3DA9A06B38C620466B04A9B53836338921AA39D14CEDAF0878691E94768F00C63294ECEC66981066B0298905063152C
311
60EF3D048C864BFA69B01F3E61ECB33E86C4F0E76CEA87737F828C65699C7852F8E05200745B327FB1E4FCBD6BE9BA257CBFE78497554BDEAA7D47BAFAB5A36D5DB3B2D888FC26942246AD16B956298E3E6A70CF9ACC6229821EEFF107077D008565411927B42405FB607C5BB26DB121B4DA522AF299FE4F1427F5A4286A13
311
CA62897B93792C99C86F0329948D87CB3D0C5C27EB029AF7AD3C0C2F384FD74D0E6BBE38F8605D7ACED5F9F0983DDC613C8042760AA96E2CABDF15F9DC9614F94F95E99C9B95DF504B0304140006080800ED7375446A77868595000000F50000002C00000034344245433036432D344444342D343335432D413544452D4538
311
394530433838313332372F636E782E786D6C5D8E4B0EC2300C44AF12795F023B164E2A246EC00942E396887C503E88E313438550375EBC9979328EAFE0C5937271292A38ECF620284EC9BAB82868751E8E20468D39A5FA5703114D20058C41E392537BACC8D26C9AAF9D7A17EF2B3C9542F56CAAE99897C2A7C9F82EA038B4
311
02FA97A3E458A3E4B146BEABE232DD2898DE456E6C0514AE642D5951BEB58D477E3EEC5A7E58BF01504B0304140006080800ED73754450D6AF7DFD000000A00100003700000034344245433036432D344444342D343335432D413544452D4538394530433838313332372F4173736574446174612F636F72652E786D6C8D50
311
5B6E842014DD0AB9FFA828566B90C98C6357D00D10652C99110C8FA6CB2F8C3669FFFAC325E771EFC961A7AFF5813EA575CAE81E485600927A32B3D24B0FC1DF700BE8C49935C6FF9201D262953D2418385BAC09DB014D467BA97D44B599E5010AE7A407343DE2A707377DC8556422F8A870F76C13D35D2C322359A4A38E33
311
E76D0C80F623E9057E4E2BAEC20B96EF2C6721A8F9D0A839DE5437252DF06168DFC68A5EF0D0B423A6251DF0F942AFB8ADCAB16E1A32D6AF94E5C9CC9957EB4FC6C94AE1E50CBC2C08C545854BF24E685791AE6C70517745C1F224FF630ADBFC4F5350DA57E51177B739E02F31C893E02C4F7DC5F12C33CED42DFF06504B03
311
04140006080800ED737544F0B2BCC776010000860500003600000034344245433036432D344444342D343335432D413544452D4538394530433838313332372F4173736574446174612F636E782E786D6CD5544D6B032110FD2BE27DBF929496E01A4A7BC9298586DE8D3B9B4A5C5D74B6B4FFBEBA6BD840C9A987361795F1
311
BD37E3631CB6F9EC34F900E7953535ADF2921230D236CA1C6B3A609B3D50B2E1CC598B17304A8CE8A0A6314C393B3A3BF429D4402B068D21AA9539A5E033B4CA280C39B6084EA0752FCEF6E05081A7446AE17D4DBD7C874EE46240DB803FE58D409157B9036F07272128C6A4445B2974C80D261B3CE5B334396B93599C1591
311
C3D9E01489A79AC6F5927526CD9CFCA00C2B0283338F2E189198F8D5872244DF6B25457C4B612502660104A26345D8039833541D248A7420101ACA1765B5CACA65B6A8F6D56ABDACD68BFBACBC5B97252B229CB383B53A9194091ED99E481B0E06290FA078CD59112DE52CAE09BB351E85913057FF2776FE2CE3964C7CF41E
311
702F0E1A76EDD364FA6FBB729424A326D9B5E4AC7AAD1D47F8889E2BB825075F31347AF7368D91F11DBF6CC3499024453F3979CDBD099CB063F65C99F65F7FE1621C99E147BB3058F937504B0304140006080800ED737544141D164681000000200100004F00000034344245433036432D344444342D343335432D41354445
311
2D4538394530433838313332372F4173736574446174612F446566696E6974696F6E4974657261746F7250726F706572746965732E62696EEB608831FB0F050C40C008C40D0C8C0CBC40DA3D352FB5283339383923353791810D2492939F9498C30E6241E498804C10D725352DB134A704A4CB37B33839352727312F35BFB4
311
5810280F35462137B104685C628E1E481327500226500C32211D622023505C0288414E02D1BE8925C531EE10B9987408AD5790970E5442170400504B0304140006080800ED737544CDEFA9A8F3000000300200004500000034344245433036432D344444342D343335432D413544452D4538394530433838313332372F4173
311
736574446174612F496E7374616E636550726F706572746965732E62696EEB608831FB0F050C40C008C40D0C8C0CBC40DA3D352FB52833393839233537510528E064E66CEAE86CE0A46B60696AA96B62E16AAC6B696E62AAEBEA6469EAEAE4E4E86A6EE1CA0E5407D508D2626C68E2E26A04546D6A6262AC6B626664A8EBE4
311
E6E4A26B686E6CE06CE6EC6CE9E86A09B2934133A6FFD0578D2BF6509A09684C030303038C6F0F6403D1077BA0DB8034038380038300031CA83830E007408D10057006848B49C2158019CC40050D0C60F000EA061E300F9D00852142E603542DBA2A0686949D0E0C780176AD20E341E109D2FAC19E05483102311F10079727
311
962467E83A1525E6A5A4A680DC0B14A4190200504B0304140006080800ED7375446E79A2F851000000570000004700000034344245433036432D344444342D343335432D413544452D4538394530433838313332372F4173736574446174612F41737365745461626C654F66436F6E74656E74732E62696E53616060703273
311
3675743670D235B034B5D435B17035D6B5343731D57575B234757572727435B7701502AACB4D2C492DCA4CCC492C28484D2C4ACC4B4E050A82112F90744FCD03CA26072767A4E6260200504B0304140006080800ED737544F865834058000000680000004500000034344245433036432D344444342D343335432D41354445
311
2D4538394530433838313332372F4173736574446174612F53747265616D56657273696F6E5461626C652E696E66558CBD0A80300C06F73E4B117FB66E451741D041DC5BF98480A492E4FDD18EAEC7DD4555D89EF28DF51A0B1BD8340C4DE7DD848B988C0ACF0649566493F2408C508DDEBB99D5129FF8F1AF8CF5B9503E20
311
FAE5A16B5AF702504B0304140006080800ED7375442E755BC9FA0000009E0100003500000034344245433036432D344444342D343335432D413544452D4538394530433838313332372F536368656D61732F636F72652E786D6C8D50DB6E842010FD1532EF287889D6209BD6DA1F687F8000EB925DC10834FDFCE2A549FBD6
311
9799C9B9644E0EBB7CCD0FF4A9576F9CED81660490B6D22963A71E62B8E216D085B3D5B9F04B06C88A59F7B0C1C0D9B4BAB89C907436681B126A9DD22728BCD701907CA4A3072F6F7A1699882129FC3D5B84BC8B4967344B74D271E6C39A02A0E3C93681BFEF26CFF283E32C46A34E8551E9A3B91ABD021F86F66D2CAB010F
311
4D3BE2AA48D7F34BF58ADBB218EBA6A163FD54B17C337316CCFC9350AE5A04AD801784569894B8A01FB4EA4ADA150D26754708CB37F91F535CD43F4DD1D8501667DCC3E681D314642738CBB7B6D2DAAB4C7B6B967F03504B0304140006080800ED7375446871AFE326010000D30300003400000034344245433036432D3444
311
44342D343335432D413544452D4538394530433838313332372F536368656D61732F636E782E786D6CD593CF4E04210CC65F85709FBFBB463361D883074F5E5C5F0099CE4A96A1930246DF5E98E5B0265E357A21B4FCCA977E5071785F2C7B03F206DDC8BBBAE50C9CC6C9B8D3C86398AB3BCE0E521062B8C238736A8191E7
311
3497E24418D7929A6056D18694B5C69D4BF21E9705DD51BFC2A238D356793F72BF85B58A0127F0E77A5241D55D4DE03192867443166116B5B2490B5C153D97C7AD8ACDC6826832204524537472CCE5B55A9DFA134D22A4F0815257850C1F6B5250EB6A8D562135DF6CE085912298050AA909548089CBBEEDF655BBABFAEEB9
311
DB0FBB6EE86FABF666685BD1645C8A17445B8A8C0B40B8328D69E3029709CAC75234D91629F25AD8077040465F1AFB7977BEC8FD037B9EC04D408FE90DC828FB5B2E7DA7FA57CD6AB6F94B5F8BD294CA4F504B0304140006080800ED7375442F7B2A8D8D0100005E0600003D00000034344245433036432D344444342D3433
311
35432D413544452D4538394530433838313332372F536368656D61732F436F6D6D6F6E536368656D612E786D6CC5944D6EC2301085F79C22F20550BB4E90A0486D24D44551BA1FE201AC3A76E43841B97D9D716A151228B448CD2A9267BE37CF3F2F9E5715DA75BEC702669388BE384B97510332614FBA28B4F2AB6C3689A7
311
6E2554ADAD116A17099EB00554D8574565BD91224FD81664852CE2B8154A58A1556AD180D566091612664DED569B4E85C89E16E0A9B2B84343744F7E4753390A3B1530085C2BD91E211F89D94302D46B10936CAFC4265D326F95451236E83C7F5BE91CFB9E3104743B67DBD2D938F13C3A124D749E26750EF22A1A551EB9BD
311
06ADA0F879D09BD159FA3AC6BD7CE837AB7C607BD0860F8E1EA4D487A296569412DD55AAB1FADA973B4F9083BB8EDAB4FF3802C72A37A2EC5ED2608A7BB8CDDE56F432ECBE2E360A841CA8FC7ABBDDD1248C2EA913094F69A1B5445024FA2238473550BCEC8BB05B8A99EEA5F6BCC0CF6AC109DE27C7B30BAFDF28F8C11D2C
311
90FB5C21787326969A2ED91EA8B72F1F6D37D888D158BBD0EF3691A49D9F10AE0363E733C8B58751DC3FA1E6BC019523FF2B329ECEBB54F4893D9B7C02504B0304140006080800ED7375447229482E27050000001600003E00000034344245433036432D344444342D343335432D413544452D453839453043383831333237
311
2F536368656D61732F47656E65726963536368656D612E786D6CDD586D4FE33810FECEAFB0F27D4BCB1DAB5BA9456A41F4FA0171A2705F2D37718AEF9CA4B29D42EFD7DF783C3549CBB601F676B587549197F1CC3CF3F278E2E1D85AE9E6E9A32CC4C509C3BFE1C3EC8AAD851E2553594AA3D2F03AB938199EC2AB28361156
311
06B93B5966D2DC0807D24237C4BD4894779B15C9172429562B298C285389CABD40949E954E2EA5612A1B2541E39FD2585595095BD50BADD251920B6D65C28C145955EACD2871A686FBB5777D801A4949543A7746954BD4A9AB54686FF1A83E946C291FB7FD0E5ABF6AA414057875C4E97D23147CC4B1636152555A8A1271A4
311
95AE0C5F6C78B5F84BA62E0919C94368B45848C8E3A59761930DBB0D323E93A4237A1D647CB49721EB3C53795EFB000BADABA7B42A4BD02F33E12BC68E120B91D4006C2DF4DD28E9F77E199CA3F169F366D2BC198F9241C29A3E2138B41CFDB8D69570886CC70FAE0AB1943C1799443B4D6533FF8A5DFB57172754C68C0D27
311
555D6696ADA44965E960F5368BAA4C8D2CE09955FF485454A852157501EE268CAE15204C756DD51A44426915E23948010EBADE970AD1F59623A85344156FF1AE85D1C85C4374D55AB90D178EF733B94CD8D1C0A3BB14D0BB860A8C2B5A7983CD2FDFC3E8525716E22AADED06AF771E2B66FAB2D487B80D8FCAB91554657921
311
9DD0542E79AB277E57CB470D3F673158B4FE40B81C10955D0923CB74D3CDF7E8F97D73E9CF59A0AE01E1FFDE8946A40E361AAE60577BA6E219F4CECF623EA1D548066AE720DD50CD1DE29B5EDF9349A09F7D32614433A3041A81AEF7A57C3F04B28B05DC85720804C7E4EA1A4832DDF027E9BBE23D154E1A8EC52450E9A190
311
FC100A4E6B57D58E572B91020977C20F8923F2BDC4C5814A8E13D342A47FE722953CADF5EBEC34210976E925427A71CF8FF9452B2DBAB352E75C695D171C7EAAC4B92A8C03FD58BA731062332F0402BECA215BC3A3B5626115A94EFD2CC19D2C605715AE36921AE4F379FFC5CAA51762F70D210F015D8E00824C73E06858C9
311
958661921762D5211177B883AF8586D10352021793ED93D6C8718D4A191A46D878151D42F75A115DD4C58A8B02A60898ABBA6CC6BDB32F3B7F31F0E3A0E608FBE7618F3AD01C9F06FD7EBF5B8304C130B2BC8733303CFB01E99C1470738D490917909470D14ACA0462FC4A32683F6E591715AF60FC079D71F6A7F61B170B05
311
D31CBB4D716003295F6FA4232698BE0676755A51ACB4847904150F3EC794CDE9C58773063B478799F2EC1C4CBF89E2095004B85FC110B24C59D7A0825F23BC1BF1CCAEB62F7DBC70795446D1DB8D56061395D2DB68052EA72C3CC0F760A8996B5315ECD63DC2F7DB0D7DEB056E24A5D1089A6C9930D06D595A19F8F2B4DC88
311
4CD560AB4BEF455C775E037439AAC0D2422BD126F9F075AB680D3F7F244C7B0E5808B848416712D5E57009B447A8275A96197B52EEB11362CA59DB3A8CEE3C932BF74816A04F483B8C1AF8615095CCE7EBDEC0B6C1AE50F4C3650956BA94A5177B0B8910C2186FBADF456C5A883F017113E4DBB534466592017680EB37A96F
311
85D85BF9819029937CE9BF6436DC12BF843D7A002C411100E024CAA628CAE624FA9D723E38FB0DB698FF22E9345A2F11D6C1086C533F45D19F3B0245150F2D1AFCEB1F7ADEA506890D532BEC15386B93397C17F806387A48B5F6875EC0B5F6741A8E6FB6FF1F66BDE742230DD66AD7C4385BFBAD21FB36A65EB4BD6652F95D
311
D69FB9080F0811CE5A8F6E600787B324015FD7470ECBF6C186B5780C146DAB96F608BDFDF8153F6EA7F377841B567DD8F21F46AE957C7A87755A89BBEF413786A7637F7E174E542F4EFE05504B0304140006080800ED7375440A3355BE74010000170400004500000034344245433036432D344444342D343335432D413544
311
452D4538394530433838313332372F536368656D61732F52656E6465724D6174657269616C536368656D612E786D6CAD93DF6AC23014C6EF7D8A90075895B1BB54D00EA430D968A7B725B6C73690269244C5B75FFED955866C0C7B9593F3E577724EBE9285D660CABA839ECE27C87F6493BFA213E5292E4034A0D6D4806294
311
07159E4F486215837A4935047926FB5E8A91CCA5065D2E0CB4A0106B521C345B509A4981D1E1B8E3AC4EF19E720D1829A08D14FC9262A38E363EB9BBCC7CE10819A09BE2CD03F3FEC0A10761A8B1C4B55BF0825EFE86F6644BFA85FABE2A1FCAFB507062707E287305C2BE55FD4F66691413AD1FA83E5353773F38FE29FCBC
311
82761859D64956833F5A7B1B54654715349537180E068919ED331871BA03EBB2D286B6ACA546032244026E4BF9F186A9AD149A489BDE10ECB673E6E8E0F56EF771CCDAFBE03C2E4C64CE06663ECADD01932454BB16224B293950319EC22713A632B26DF9D5C8FB60F2D8BCCBDBCE4912CF0EAC4C72197E963835A7AC6AB7EB
311
EF5AA478FAF43C7BF1C16A1C2CC7C122C5DF3D3904CA3CC2B7E456A12049FC3B85FF723EF902504B010214000A0000080000ED7375443DEE336E79000000790000001B00000000000000000000000000000000006175746F6465736B2D64657369676E2D7061636B6167652E786D6C504B01021400140006080800ED737544
311
FAA28935A7000000350100001300000000000000000000000000B20000005B436F6E74656E745F54797065735D2E786D6C504B01021400140006080800ED73754456008AFEF70000009701000008000000000000000000000000008A010000636F72652E786D6C504B01021400140006080800ED7375448C95DCDD7D000000
311
9D0000000700000000000000000000000000A7020000636E782E786D6C504B01021400140006080800ED737544A1FF8E292A0100001E0200002D000000000000000000000000004903000034344245433036432D344444342D343335432D413544452D4538394530433838313332372F636F72652E786D6C504B0102140014
311
0006080800ED7375446A77868595000000F50000002C00000000000000000000000000BE04000034344245433036432D344444342D343335432D413544452D4538394530433838313332372F636E782E786D6C504B01021400140006080800ED73754450D6AF7DFD000000A001000037000000000000000000000000009D05
311
000034344245433036432D344444342D343335432D413544452D4538394530433838313332372F4173736574446174612F636F72652E786D6C504B01021400140006080800ED737544F0B2BCC776010000860500003600000000000000000000000000EF06000034344245433036432D344444342D343335432D413544452D
311
4538394530433838313332372F4173736574446174612F636E782E786D6C504B01021400140006080800ED737544141D164681000000200100004F00000000000000000000000000B908000034344245433036432D344444342D343335432D413544452D4538394530433838313332372F4173736574446174612F44656669
311
6E6974696F6E4974657261746F7250726F706572746965732E62696E504B01021400140006080800ED737544CDEFA9A8F3000000300200004500000000000000000000000000A709000034344245433036432D344444342D343335432D413544452D4538394530433838313332372F4173736574446174612F496E7374616E
311
636550726F706572746965732E62696E504B01021400140006080800ED7375446E79A2F851000000570000004700000000000000000000000000FD0A000034344245433036432D344444342D343335432D413544452D4538394530433838313332372F4173736574446174612F41737365745461626C654F66436F6E74656E
311
74732E62696E504B01021400140006080800ED737544F865834058000000680000004500000000000000000000000000B30B000034344245433036432D344444342D343335432D413544452D4538394530433838313332372F4173736574446174612F53747265616D56657273696F6E5461626C652E696E66504B01021400
311
140006080800ED7375442E755BC9FA0000009E01000035000000000000000000000000006E0C000034344245433036432D344444342D343335432D413544452D4538394530433838313332372F536368656D61732F636F72652E786D6C504B01021400140006080800ED7375446871AFE326010000D3030000340000000000
311
0000000000000000BB0D000034344245433036432D344444342D343335432D413544452D4538394530433838313332372F536368656D61732F636E782E786D6C504B01021400140006080800ED7375442F7B2A8D8D0100005E0600003D00000000000000000000000000330F000034344245433036432D344444342D343335
311
432D413544452D4538394530433838313332372F536368656D61732F436F6D6D6F6E536368656D612E786D6C504B01021400140006080800ED7375447229482E27050000001600003E000000000000000000000000001B11000034344245433036432D344444342D343335432D413544452D4538394530433838313332372F
311
536368656D61732F47656E65726963536368656D612E786D6C504B01021400140006080800ED7375440A3355BE740100001704000045000000000000000000000000009E16000034344245433036432D344444342D343335432D413544452D4538394530433838313332372F536368656D61732F52656E6465724D61746572
311
69616C536368656D612E786D6C504B050600000000110011005A060000751800000000
310
504B03040A0000080000ED7375443DEE336E79000000790000001B0000006175746F6465736B2D64657369676E2D7061636B6167652E786D6C3C3F786D6C2076657273696F6E3D22312E302220656E636F64696E673D227574662D3822203F3E3C666F726D6174733E3C666F726D61743E687474703A2F2F736368656D612E
310
6175746F6465736B2E636F6D2F64657369676E2D7061636B6167652F323030393C2F666F726D61743E3C2F666F726D6174733E504B0304140006080800ED737544D486FD9CA0000000F4000000130000005B436F6E74656E745F54797065735D2E786D6C7D8EC10E82300C865F65E91D8A1E8C310C0EEA1BF002731658846E
310
D98AC1B77784ABF1D8FE5FBFBF75BBCE937A534CCEB38643598122B6FEE978D0B0485F9C41B54DDD7D022595594E1A469170414C76A4D9A4D207E29CF43ECE46F218070CC6BECC4078ACAA135ACF422C856C0E68EA1BF5669944DDD7BCDE7B1F8E415D77AECB980613C2E4AC91FC167A2B244592486606FC29C8FD7F045B9A
310
EF7053A7E60B504B0304140006080800ED73754406891EC9EA0000007C01000008000000636F72652E786D6C8D90DD8EC22010855F85CC3D2DF4C7D68662D4D827D81720805DA285A6C0C6C7976A4D76EFF66A2667CE373339ECF098EEE8472FDE38DB03CD08206DA553C68E3DC470C52DA003678B73E1970D901593EE6195
310
81B3717171DE24E96CD03624D53AA5375178AF0320794F4D0F5E7EEB49642286E4F0B76C16F226469DD14F97E0188D42EF2346A57DE66AF402BC21D58ED445834FA41970D5EE2E787FACCFF8B23F9353330CB46A8F2C5F61CE82993EF7E5A245D00A7841688549890BFA45ABAEA45D5A45EA8E1096AFF63F509CD53FA1686C
310
288BEDDD37E681D3F4C86BC059BE6691CA2BA854D7DCF813504B0304140006080800ED73754455019EA25F0000007C00000007000000636E782E786D6C4DCB3B0E80201045D1AD90E915ED2CF8AC45050C11660C8261F98AB1B07AC9C97D42D718D865D3E909258CFD00CCE24AC6E326A164D74DC0B4128928FF326038472B
310
A13128B1252AC747C6BAB984FC68F0B87FE8960A5C09FE86CFB69FBA01504B0304140006080800ED73754438F5B28766010000020300000C0000006662782F636F72652E786D6C8D52ED8E8230107C95A6FFA12DA278A6D4A8D127B817A8A57244684969898F7FCB87F1BC1863484AB3B3B3333BC0B7B7A646BD765D654D8E
310
594C31D246D9A232658E83BF446B8CB6823B6BFD9F368C8C6C748E873216BC7436B4734959E3B5F15035B6D07351769DF618A91A2E39EED48F6E642C83878EEE1AB7525D65A96316030C7D8277DE810134890C271697F38D93A92E78085531A355016AD5A5D20E8B8CA62BBA4CB2684FB35394AE57C7E86BB73C44C7AF03DD
310
67A7134BD73B4E06B2E0BE6AEEEE94D3D2EB028B84B234A28B2861DF2CDD2CD80646D1E586524E86F62752688B0F49A1327E91CC76275A8705032323F06F5B88C8A34EF6E087084E8610E13526FC1C340402217B79AEEF7B5CA1D46BE5AD4B01296C7840BDAC8306558AC687930985C9E300D8ECE59CE4CD9CF733E0034A53
310
8235E9E17A0E7E50E793EA1C45AB5DD4FB1B32D635B27E989B2C3ECE87D04BBAB2B5759FB0C9BC2A99C324C3DF2B7E01504B0304140006080800ED737544098C6F2D7E0000009D0000000B0000006662782F636E782E786D6C4DCCDD0AC22018C6F15B91F7DCF6B62F15D4B192EE63343724A76133BAFCB6D841470FFC78F8
310
CBEEB378F2B6E9E56250703E21101BEE7174615690D78972209D9629C6F5EF06240C8B55B0336839A7989F078D761AB25F37F52E3C0EBCB0C6A0E18C22B60DAD4B7EA57D590B6AB0EDB1624254E6068596C5AFB4ED1ED65F504B0304140006080800ED737544E9BD6BF22901000013020000310000006662782F4237354430
310
4438372D303036352D343238432D413234392D4430364130333739393344462F636F72652E786D6C8D514B6EC32014BC0A62952EB00113C78930515AAB27E80528901425068B4F95E317D78ED4EEB2E1A17933F3061E3FDEC71BF836215AEF7A482A0C8171CA6BEB2E3DCCE98C3A088E8207EFD31F1A044E8EA687330C05BF
310
049FA71552DE25E352419DD76605658C2641A06EE5D2C3A8BECC282B995361C46B35497595175391AAB40B4FF0984209009621F309C5EB6E3BE0A1DB218CDB2D62B47B4327CAF668C0ED0937BBFDBE19DE79BD0805CFD9EA556E758963CFD684674D66B1E0C98E8FF82A18998C868262C2106E10251F841D1A72A025CFF680
310
31AF67FA3F519EF493A26C5D6AE81A7791452808AF9786E0DAE7CFDB238CB94F3E2430CFDB44A35EA0C015A15DCB3AC6EB8559DE5F2C5BB65AC6E443F9DFCDF5B3909BD5B76582D7F38A4AF9DD5FA9F33AC50F504B0304140006080800ED737544E816CF5B5401000033030000300000006662782F42373544304438372D30
310
3036352D343238432D413234392D4430364130333739393344462F636E782E786D6CBD93CD6EC32010845F0571F7BF9B461126520F7D821E7AC5B049686CB0F8A99AB7EF929034971C2A55BD206B7698597DC26CFB354FE4139CD7D60CB4296B4AC048ABB4D90F34865DB1A664CB99B336DCD92831628681269972B677362E
310
5952B013710AA84EDA1CB3E8C0DBE8247894D34D325929260C00534414611E412950E466C4AF1D385C05C5F144C201C8EBCB3BB1E307C8E059955238AB520767E9CC4D77264AE424BC1FA8970798452962B00AFCB1542288B229AF5D0F76FA4922E9C2B5323A4D52F940D34979DEA8448EACC221673E38A4974DE1B400E562
310
59262D4540C8D5D978F17016B509AB3E7B358277E8EEDAD57A8D61E7196741CF901DD28108A0286FEBA62FEAAE689BB7A6DF74CDA67D2EEAA74D5DB32AD9391BAD9DF2258C01671722AD096002E50DABD2F811BEEC234A3B646DDDE9172011406EBDD0B965FC259F66D5F5FD3FF2A9CEEF1B7139FC0BF837504B0304140006
310
080800ED737544D3CD93A1490700004E1C0000340000006662782F42373544304438372D303036352D343238432D413234392D4430364130333739393344462F6F626A656374732E786D6CED59496FA34814FE2B88B9CC1C8C8D97743C22B4626791D54A77ABAD6ECDC1122AA08C6B522CAA82C4995F3FAF16306093E0E9CC
310
AD0F0906AADEF2BDB51ECEC77D4C8D27CC3849932BD3B646A68193200D49125D9945BE1D5C9AC647D761699AD796994682627C658AC7A6EB442C2D32FD28C45B54D0BCF5F46EF197C1039C60D30828E2FCCAE4C10EC7C842459E86983F5A21CA91156DF7966DA9854DB21143D9AE4534430C2739480ACF13A06228A1ECE6ED
310
C81CBACE50BC771DF15FAF1AF75A35E95E35945A37A52409CF51121C89D42233EE25D2C49EDEDC8E67F3C16C3A9D0CA617637BB0B85BDC0CEC0F93D1F262B99C5FDFCE413C3F4DA9D629C4194E42B0DF8BE9DACE50BCA954D7089C923A489304071248804AAAD5264830075635F846CD5B5B68547B2D35ACDD4FC47B2D42ED
310
71CB081DAB7A02D1A00B8A6876A5C6E5B5AE5FEAFF0D8AF33E4EC938164ECD7306D6D5F030880AD31D3943F5D475FC832D083762946346103528F119626014582A96B88EDAA0C988E06040CA101A48CBA9D74DDF82C87C3B744E49B92D28159161BA32B03C083F9C732919F907B383F475644026B0704192FC524B99BF64D8
310
74E7CE503E741D71998CF54B05A4B1A52802470135D5DB96A24B11FAAB1BD3FD74E7EFD7221D9C669EB134C32C174E27EC28E50247D6578192666BF7B29CD800CA2850F5CE0328DF00F9CF903D0EA280DD18D94FF753BD366728E1DB94C5601B63640C46F06F64D8F2BFF85DFBE50CABCD4DEB75E109612AA0BAFC793C9B3A
310
48ACB4FC35385DE7091C3E6513FD6A1D200AFEFC40120048388941537804A97DEBEF4D77058913123DEC42D4B5416510F7097E3A434DE6609532BC74D42580A8E631EE6324804D7A2488D161A77BA81E8C040733D555EC8277F62EEE7A7DB3FEB42ED81605F841C7F40DDE9284E450354F0BD4C0BCA11154BB80914C6C355D
310
AD54952AAC03B5C6A647FCF29CB210D03936D2BA6EA458CBC7C144C250C25A51899CB8E96010C0BE281539CA798303682E0A7C8DFE03E101A61425382D4ABE554A14DE5DA509DD6898EE44D965326EF93DC34F44B422106987150D247EA85EE5FEBBC8231DCA7C5F7D06AF35A1DEC3E5158FBEEF010C7F4679B07B9BD65AAE
310
1B2C20578438D4E85428F887C210A434659EFFE2A99C7992F28F46E0413A559613542016650497C929523A7821D96E0B0E19FA84FD7EAC96751F1959137B66D4FFB7C27A0A791BB200623A825B3C3C12A3087B5B1476B1AB73AB687349B28334C35B0A7A912792BF7828F746218ECE81E62CE2F377A51ED1947392600E95EF
310
24F875344616A42465CD526461D516D0847B31CE113D070141A6035C59C064B71C4013F2B68C95F7BE66B13AD1FFC9231882AE344D3C024DEDBE0716B6351BF7921DBCADA42DD5A0053423C18BF78C49B4CB7B70AA42B234A2BAB6CC18C0E1A6C8BD344301B8750FB247B1228CDA22EAA3E05154222F28E87B3908C774EB11
310
4A8BD8833F92C019A64F68F743A1465CE5BE1CC7D0DEA1BC607D985CCC46477C54F7D14E8135465B42A1F7F6629475A0DE4888B2B3312AF035F58E60F28B38F3509C16492F47B1266D8FD4E4DB6615647BCA2B9A4E68404BC29AA0EB40B75E95DA326783AB530F0E86F9AE038946762A494A4ADD0445A686B89499EFC5E328
310
CEA83A201ED5DB6625B3ABF07C9D01D381FFBE0CE2B457C19AB640283BDB7ABF09A88A6C5F30A2CD98EF8AD84F10391D918D72FE8072BEB957657B13A9AB952551C91688425754518646A7EA354F9AB09BF8BD22FE7D65C194A783FC4AD82EC6498E4447FA207ED06FE87499E8E6A4F6AD445FD09BD797FBF599FAC08EDED4
310
BF8A56123F9FC941EF5A8A1EED8855E908D5551C72A0C904B7D25E30F975D4A9CF477E1D75E0580DF95F9D8120A865D6D3BE22FCF38CA38E8EE59F3DF1D0D447B44C05EA60D5185B05C2F3CF3A9D546553F42AEF713A9173958A6A55DC4E76589087CB5AD1BB49ACB4D7DDADE6A0CD12A99CE9FDE766A2AB389F94FFBC66C2
310
3E6A849405B5E8F2449C1C95E046D65E5C2C67D7CBD162309AC364797A793B19CC3F4C6783DBC57C76BB585CDF7EB8BCAD0092B1EC3A55BE931510EE55DE2B1F8B3B2D014C92794A4908C384D088700A87181829F418F9B31873D9A01C7269A83F24F4D8FDA466B339F2292E25D921186A530EF91F302A82BCF9DCF80DC6A9
310
62A27965C2A0CB7A847FDA0D4C03EAEF95F924E68F01E6960FA331318494C45B210CF8A02412AD8FDA54DD57BB04368D0A512DE95329B45E2A7D6805A045CC6062D7189048D9F4FBE02CC54B710C94C34FBFC8A18D53BA1C1E54CA483607F32BDD28491E35EB3D44E3EB6AD9965CD340A4D774FF55275054073962919CD10B
310
C1B448D7375F87301B34565F8C8C1611D8B23FA501C3E0CC85688BC08BC02B34CD0C895E7AF9E7E62B4BE1B3546CDC117001E3F7FDE5C51F9B651AC769A21E6DAEE1FC17C2C72D63BD834F55E1063A3F2C3E08F0CD78644F367210AFBF0D783EE2D842217F8407CEB060A402BA617EF0CBA3A2A147AE43618A9687AE6E0C9D
310
17A1AB55848EE6D2EAC39C0131243E01898891715E6AFBEA2C7E289782A80CA6E8EEBF504B0304140006080000ED737544000000000000000000000000350000006662782F42373544304438372D303036352D343238432D413234392D4430364130333739393344462F76657274696365732E62696E504B03041400060808
310
00ED737544F270F1330600000004000000360000006662782F42373544304438372D303036352D343238432D413234392D4430364130333739393344462F747269616E676C65732E62696E636660600000504B0304140006080000ED737544000000000000000000000000370000006662782F42373544304438372D303036
310
352D343238432D413234392D4430364130333739393344462F617474726962757465732E62696E504B0304140006080800ED737544B28BD8DE8F00000041010000360000006662782F42373544304438372D303036352D343238432D413234392D4430364130333739393344462F6469726563746F72792E786D6C858F410E
310
C2201045AF4266AF15DDB800BA74E7C21B903225242D6328188F2FA5C4183471359997F9FF81E89FF3C41E1816475E02DF1F80A11FC8386F25A438EECEC07A250251FC3803E6F58C12560C4AD840E95E91C151A72936F496F35732D860FE635F62C8F2DA16B505C545B74125BAA2FA9E05D7CC053D063734D5A7665FD55B6B
310
8D15D5F1BFEAFD8490FFA45E504B0304140006080800ED73754415223051FD000000A00100003B0000006662782F42373544304438372D303036352D343238432D413234392D4430364130333739393344462F7265736F75726365732F636F72652E786D6C8D504B6EC23010BD8A357B27764808448E112072825EC0728660
310
416CE44FD5E3D781546A77DDCC8CDE47F3F4C4E16B7E904FF4C138DB032F1810B4DA8DC64E3DA478A53B200729BC73F1970C885533F6B0C020C5E45D7AAE907636A28D19B56EC41554216004A21FF9E821E81BCEAA50296645B8174FA5EF6AC2821799CE3A2942F43900793F5926488FC125AF3188F2CD4A919219578D19F3
310
4F7335E841B6ACDEB2A6DAD2136B075AEFB617BA3F36677AD99FD9A91D065EEF8EA25CCC524433FF64D41E55C41164C5784DD98656FC83D7DD8677554B59D33126CA45FEC7949EE33F4DC9D8B8A9D6B86F5B00C97390172145B9F495D7ABCCBC976EE537504B010214000A0000080000ED7375443DEE336E79000000790000
310
001B00000000000000000000000000000000006175746F6465736B2D64657369676E2D7061636B6167652E786D6C504B01021400140006080800ED737544D486FD9CA0000000F40000001300000000000000000000000000B20000005B436F6E74656E745F54797065735D2E786D6C504B01021400140006080800ED737544
310
06891EC9EA0000007C010000080000000000000000000000000083010000636F72652E786D6C504B01021400140006080800ED73754455019EA25F0000007C000000070000000000000000000000000093020000636E782E786D6C504B01021400140006080800ED73754438F5B28766010000020300000C00000000000000
310
000000000000170300006662782F636F72652E786D6C504B01021400140006080800ED737544098C6F2D7E0000009D0000000B00000000000000000000000000A70400006662782F636E782E786D6C504B01021400140006080800ED737544E9BD6BF2290100001302000031000000000000000000000000004E0500006662
310
782F42373544304438372D303036352D343238432D413234392D4430364130333739393344462F636F72652E786D6C504B01021400140006080800ED737544E816CF5B54010000330300003000000000000000000000000000C60600006662782F42373544304438372D303036352D343238432D413234392D443036413033
310
3739393344462F636E782E786D6C504B01021400140006080800ED737544D3CD93A1490700004E1C00003400000000000000000000000000680800006662782F42373544304438372D303036352D343238432D413234392D4430364130333739393344462F6F626A656374732E786D6C504B01021400140006080000ED7375
310
440000000000000000000000003500000000000000000000000000031000006662782F42373544304438372D303036352D343238432D413234392D4430364130333739393344462F76657274696365732E62696E504B01021400140006080800ED737544F270F1330600000004000000360000000000000000000000000056
310
1000006662782F42373544304438372D303036352D343238432D413234392D4430364130333739393344462F747269616E676C65732E62696E504B01021400140006080000ED7375440000000000000000000000003700000000000000000000000000B01000006662782F42373544304438372D303036352D343238432D41
310
3234392D4430364130333739393344462F617474726962757465732E62696E504B01021400140006080800ED737544B28BD8DE8F000000410100003600000000000000000000000000051100006662782F42373544304438372D303036352D343238432D413234392D4430364130333739393344462F6469726563746F7279
310
2E786D6C504B01021400140006080800ED73754415223051FD000000A00100003B00000000000000000000000000E81100006662782F42373544304438372D303036352D343238432D413234392D4430364130333739393344462F7265736F75726365732F636F72652E786D6C504B0506000000000E000E00800400003E13
310
00000000
  0
CELLSTYLEMAP
  5
890
102
{ACAD_REACTORS
330
88F
102
}
330
88F
100
AcDbCellStyleMap
 90
        3
300
CELLSTYLE
  1
TABLEFORMAT_BEGIN
 90
        5
170
     1
 91
        0
 92
    32768
 62
   257
 93
        1
300
CONTENTFORMAT
  1
CONTENTFORMAT_BEGIN
 90
        0
 91
        0
 92
        4
 93
        0
300

 40
0.0
140
1.0
 94
        5
 62
     0
340
14
144
0.25
309
CONTENTFORMAT_END
171
     1
301
MARGIN
  1
CELLMARGIN_BEGIN
 40
0.06
 40
0.06
 40
0.06
 40
0.06
 40
0.06
 40
0.06
309
CELLMARGIN_END
 94
        6
 95
        1
302
GRIDFORMAT
  1
GRIDFORMAT_BEGIN
 90
        0
 91
        1
 62
     0
 92
       -2
340
12
 93
        0
 40
0.045
309
GRIDFORMAT_END
 95
        2
302
GRIDFORMAT
  1
GRIDFORMAT_BEGIN
 90
        0
 91
        1
 62
     0
 92
       -2
340
12
 93
        0
 40
0.045
309
GRIDFORMAT_END
 95
        4
302
GRIDFORMAT
  1
GRIDFORMAT_BEGIN
 90
        0
 91
        1
 62
     0
 92
       -2
340
12
 93
        0
 40
0.045
309
GRIDFORMAT_END
 95
        8
302
GRIDFORMAT
  1
GRIDFORMAT_BEGIN
 90
        0
 91
        1
 62
     0
 92
       -2
340
12
 93
        0
 40
0.045
309
GRIDFORMAT_END
 95
       16
302
GRIDFORMAT
  1
GRIDFORMAT_BEGIN
 90
        0
 91
        1
 62
     0
 92
       -2
340
12
 93
        0
 40
0.045
309
GRIDFORMAT_END
 95
       32
302
GRIDFORMAT
  1
GRIDFORMAT_BEGIN
 90
        0
 91
        1
 62
     0
 92
       -2
340
12
 93
        0
 40
0.045
309
GRIDFORMAT_END
309
TABLEFORMAT_END
  1
CELLSTYLE_BEGIN
 90
        1
 91
        1
300
_TITLE
309
CELLSTYLE_END
300
CELLSTYLE
  1
TABLEFORMAT_BEGIN
 90
        5
170
     1
 91
        0
 92
        0
 62
   257
 93
        1
300
CONTENTFORMAT
  1
CONTENTFORMAT_BEGIN
 90
        0
 91
        0
 92
        4
 93
        0
300

 40
0.0
140
1.0
 94
        5
 62
     0
340
14
144
0.18
309
CONTENTFORMAT_END
171
     1
301
MARGIN
  1
CELLMARGIN_BEGIN
 40
0.06
 40
0.06
 40
0.06
 40
0.06
 40
0.06
 40
0.06
309
CELLMARGIN_END
 94
        6
 95
        1
302
GRIDFORMAT
  1
GRIDFORMAT_BEGIN
 90
        0
 91
        1
 62
     0
 92
       -2
340
12
 93
        0
 40
0.045
309
GRIDFORMAT_END
 95
        2
302
GRIDFORMAT
  1
GRIDFORMAT_BEGIN
 90
        0
 91
        1
 62
     0
 92
       -2
340
12
 93
        0
 40
0.045
309
GRIDFORMAT_END
 95
        4
302
GRIDFORMAT
  1
GRIDFORMAT_BEGIN
 90
        0
 91
        1
 62
     0
 92
       -2
340
12
 93
        0
 40
0.045
309
GRIDFORMAT_END
 95
        8
302
GRIDFORMAT
  1
GRIDFORMAT_BEGIN
 90
        0
 91
        1
 62
     0
 92
       -2
340
12
 93
        0
 40
0.045
309
GRIDFORMAT_END
 95
       16
302
GRIDFORMAT
  1
GRIDFORMAT_BEGIN
 90
        0
 91
        1
 62
     0
 92
       -2
340
12
 93
        0
 40
0.045
309
GRIDFORMAT_END
 95
       32
302
GRIDFORMAT
  1
GRIDFORMAT_BEGIN
 90
        0
 91
        1
 62
     0
 92
       -2
340
12
 93
        0
 40
0.045
309
GRIDFORMAT_END
309
TABLEFORMAT_END
  1
CELLSTYLE_BEGIN
 90
        2
 91
        1
300
_HEADER
309
CELLSTYLE_END
300
CELLSTYLE
  1
TABLEFORMAT_BEGIN
 90
        5
170
     1
 91
        0
 92
        0
 62
   257
 93
        1
300
CONTENTFORMAT
  1
CONTENTFORMAT_BEGIN
 90
        0
 91
        0
 92
        4
 93
        0
300

 40
0.0
140
1.0
 94
        2
 62
     0
340
14
144
0.18
309
CONTENTFORMAT_END
171
     1
301
MARGIN
  1
CELLMARGIN_BEGIN
 40
0.06
 40
0.06
 40
0.06
 40
0.06
 40
0.06
 40
0.06
309
CELLMARGIN_END
 94
        6
 95
        1
302
GRIDFORMAT
  1
GRIDFORMAT_BEGIN
 90
        0
 91
        1
 62
     0
 92
       -2
340
12
 93
        0
 40
0.045
309
GRIDFORMAT_END
 95
        2
302
GRIDFORMAT
  1
GRIDFORMAT_BEGIN
 90
        0
 91
        1
 62
     0
 92
       -2
340
12
 93
        0
 40
0.045
309
GRIDFORMAT_END
 95
        4
302
GRIDFORMAT
  1
GRIDFORMAT_BEGIN
 90
        0
 91
        1
 62
     0
 92
       -2
340
12
 93
        0
 40
0.045
309
GRIDFORMAT_END
 95
        8
302
GRIDFORMAT
  1
GRIDFORMAT_BEGIN
 90
        0
 91
        1
 62
     0
 92
       -2
340
12
 93
        0
 40
0.045
309
GRIDFORMAT_END
 95
       16
302
GRIDFORMAT
  1
GRIDFORMAT_BEGIN
 90
        0
 91
        1
 62
     0
 92
       -2
340
12
 93
        0
 40
0.045
309
GRIDFORMAT_END
 95
       32
302
GRIDFORMAT
  1
GRIDFORMAT_BEGIN
 90
        0
 91
        1
 62
     0
 92
       -2
340
12
 93
        0
 40
0.045
309
GRIDFORMAT_END
309
TABLEFORMAT_END
  1
CELLSTYLE_BEGIN
 90
        3
 91
        2
300
_DATA
309
CELLSTYLE_END
  0
ENDSEC
  0
EOF
